Log in

One click and you are in

Login with Facebook Login with Google

Why sign up and log in

Guitar Tabs Explorer
The Police bass tabs for King of pain

Bass tabs

..There's a black hat caught...

G|------------------------------------------------|
D|--11--9--11--9--11--9--11--9--7--9--7--9/----7--|
A|------------------------------------------6-----|
E|------------------------------------------------|

.. I have stood here before..

G|---------------------------------------------------------|
D|--7--9--11--12--7--9--11--12--7--9--11--12--7--9--11/----|
A|------------------------------------------------------5--|
E|---------------------------------------------------------|

ThereƂ's a fossil that's trapped..

G|---------------------------------------------------------|
D|---------------------------------------------------------|
A|--4--2--4--2--4--2-2-4-2-2-------------------------------|
E|------------------------------5--7--5-5--7-7--4--4--4-5--|

G|---------------------------------------------------------|
D|---------------------------------------------------------|
A|--4--2--4-4422--4--2--4-4422-----------------------------|
E|------------------------------5--7--5-5--7-7--4-4-4-5-55-|

  ....I have stood here before..

G|-------------------------------------------------------------------------|
D|-7-6---------------------------------------------------------------------|
A|-----7-------------47---------------4-7--------------4-7-----------------|
E|-------0-0--2--4--5-----0-0--2--4--5-----0-0--2--4--5-----0-0--2--4--5/7-|

There's a rich man

G|------------14/16--16--------------------------------|------------------|
D|------14/16----------16--14/16----14h16-16p14-/-7p6--|------------------|
A|-7/14--------------------------14------------------7-|------------------|
E|----------------------------------------------------7|7/9--7--9--7--99--|

G|-----------------------------------------------|
D|-----------------------------------------------|
A|---------9/11----------------------------------|
E|7/9-9--7-----9-77-0-7--5-5/7-77-5-5-7-7-44--55-|

There's a red fox torn..

G|------------------------------------------------------------|
D|------------------------------------------------------------|
A|--4--2--4-4422--4--2--4-4422--------------------------------|
E|------------------------------5--7--5-5--7-7-5-4-4-4-5-55/7-|

Only guitar until "its the same old thing as yesterday"

G|------------------------------------------------------------------------|
D|---------------7-6------------------------------------------------------|
A|-------------------7-------------47---------------4-7--------------4-7--|
E|44444444/55555-------0-0--2--4--5--5--0-0--2--4--5-----0-0--2--4--5---5-|

Almost there ...

Sign in to get your own page with links to favourite songs and more. You are just one click away...

Login with Facebook Login with Google