Log in

One click and you are in

Login with Facebook Login with Google

Why sign up and log in

Guitar Tabs Explorer
The Police bass tabs for Invisible sun

Bass tabs

Transcribed by Brian Schretzmann <schretz@nwu.edu>


             Invisible Sun
             by The Police
          (off Ghost in the Machine)
NOTE: Use a fretless if you've got one - it really helps the bass tone
   during the chorus.


INTRO

   Eb        Cm9       (ad lib Repeat)
    e e e e e e e e  e e e e e e e e
|---|------------------|------------------||
|4:-|*-----------------|-----------------*||
|4:-|*-6-6-6-6-6-6-6-6-|-3-3-3-3-3-3-3-3-*||
|---|------------------|------------------||


VERSE 1&2

 Eb        Cm9       (6x) Bb9        A9   Ab9
  e e e e e e e e  e e e e e e e e   e e e e e e e e  e e e e e e e e
------------------|------------------||-----------------|-----------------|
*-----------------|-----------------*||-----------------|-----------------|
*-6-6-6-6-6-6-6-6-|-3-3-3-3-3-3-3-3-*||-----------------|-----------------|
------------------|------------------||-6-6-6-6-6-6-6-6-|-5-5-5-5-4-4-4-4-|


CHORUS

 G                (2x)
  e e e e q e e+ e e e e e e e e+  e e e e q e e+ e e e e e e q
|----------------|------------------||---------------|---------------|
|*-----3---3-5---|-----3---3-2-----*||-----3---3-5---|-----3---3-2---|
|*---5---5-------|---5---5-----3---*||---5---5-------|---5---5-----3-|
|--3-----------3-|-3-------------3--||-3-----------3-|-3-------------|


VERSE 3

Same as VERSE 1, but do the repeat 3x, then to Bb9...


CHORUS


INSTRUMENTAL SECTION

Same as VERSE 1


CHORUS


OUTRO

Same as INTRO

Almost there ...

Sign in to get your own page with links to favourite songs and more. You are just one click away...

Login with Facebook Login with Google