Log in

One click and you are in

Login with Facebook Login with Google

Why sign up and log in

Guitar Tabs Explorer
The Police bass tabs for Every little thing she does is magic

Every Little Thing She Does Is Magic bass tab by The Police

The Police bass tabs for Every little thing she does is magic

Bass tabs

The Police - "Every Little Thing She Does Is Magic" - Bass Tab


Intro:
						   (x2)
|---------|----------|---------|---------|----------|
|---------|*---------|---------|---------|---------*|
|-r-r-r-r-|*---------|---------|-2-------|-4-------*|
|---------|--3-------|-5-------|---------|----------|
 1 2 3 4  1 2 3 4  1 2 3 4  1 2 3 4  1 2 3 4
Verse:

|----------|---------|---------|----------|
|*---------|---------|---------|---------*|
|*---------|---------|-2-------|-4-------*|
|--3-------|-5-------|---------|----------|
  1 2 3 4  1 2 3 4  1 2 3 4  1 2 3 4

	  (x3)
|-------------|---------|
|*-----------*|---------|
|*-5-5-2-----*|-5/------|
|--------3-5--|---------|
  1 2 & 3 4  1 2 3 4


Chorus 1:

|-----------|-------------|-----------|-------------|
|-----------|---------5-7-|-----------|-------------|
|-0---4-----|-5-5-5-7-----|-0---4-----|-5-5-5-4-----|
|-----------|-------------|-----------|---------7-5-|
 1 2 & 3 4  1 & 2 & 3 4  1 2 & 3 4  1 & 2 & 3 4

|-----------|-------------|-----------|---------|---------|
|-----------|---------5-7-|-----------|---------|-3-------|
|-0---4-----|-5-5-5-7-----|-0---4-----|-1-------|---------|
|-----------|-------------|-----------|---------|---------|
 1 2 & 3 4  1 & 2 & 3 4  1 2 & 3 4  1 2 3 4  1 2 3 4

|---------|---------|
|---------|---------|
|---------|---------|
|-3-------|-5-------|
 1 2 3 4  1 2 3 4

Chorus 2:

|-----------|-------------|-----------|-------------|
|-----------|---------5-7-|-----------|-------------|
|-0---4-----|-5-5-5-7-----|-0---4-----|-5-5-5-4-----|
|-----------|-------------|-----------|---------7-5-|
 1 2 & 3 4  1 & 2 & 3 4  1 2 & 3 4  1 & 2 & 3 4

|-----------|-------------|-----------|---------|---------|
|-----------|---------5-7-|-----------|---------|-3-------|
|-0---4-----|-5-5-5-7-----|-0---4-----|-1-------|---------|
|-----------|-------------|-----------|---------|---------|
 1 2 & 3 4  1 & 2 & 3 4  1 2 & 3 4  1 2 3 4  1 2 3 4

|---------|---------|
|---------|-3-------|
|-1-------|---------|
|---------|---------|
 1 2 3 4  1 2 3 4

Middle-eight:

|---------|---------|---------|---------|---------|---------|
|---------|---------|---------|---------|---------|---------|
|-1-------|-0-------|---------|-0-------|---------|-0-------|
|---------|---------|-3-------|---------|-3-------|---------|
 1 2 3 4  1 2 3 4  1 2 3 4  1 2 3 4  1 2 3 4  1 2 3 4

				       (x4)
|---------|---------|----------|----------|-----------|---------|
|---------|---------|*---------|---------*|-----------|---------|
|-1-------|-0-------|*-1-1-1-1-|-3-3-3-3-*|-5-5-2-----|-5-------|
|---------|---------|----------|----------|-------3-5-|---------|
 1 2 3 4  1 2 3 4  1 2 3 4  1 2 3 4  1 2 & 3 4  1 2 3 4

Last Chorus/End:

|------------|-------------|-----------|--------------|
|*-----------|---------5-7-|-----------|-------------*|
|*-0---4-----|-5-5-5-7-----|-0---4-----|-5-5-5-4-----*|(x3)
|------------|-------------|-----------|---------7-5--|
  1 2 & 3 4  1 & 2 & 3 4  1 2 & 3 4  1 & 2 & 3 4

|-----------|-------------|-----------|---------|---------|
|-----------|---------5-7-|-----------|---------|-3-------|
|-0---4-----|-5-5-5-7-----|-0---4-----|-1-------|---------|
|-----------|-------------|-----------|---------|---------|
 1 2 & 3 4  1 & 2 & 3 4  1 2 & 3 4  1 2 3 4  1 2 3 4

|---------|---------|---------|---------|
|---------|---------|---------|-3-------|(there's still a little
|---------|---------|-1-------|---------| bit of the end left)
|-3-------|-5-------|---------|---------|
 1 2 3 4  1 2 3 4  1 2 3 4  1 2 3 4

By: Johari Taylor
E-mail: viking@powerup.com.au

Almost there ...

Sign in to get your own page with links to favourite songs and more. You are just one click away...

Login with Facebook Login with Google