Log in

One click and you are in

Login with Facebook Login with Google

Why sign up and log in

Guitar Tabs Explorer
The Police guitar tabs for Every breath you take acoustic

Guitar tabs

Capo 1.

e|------------------------------------------------|------------------------------------------------|
B|-------------0-----------------------0----------|------------------------------------------------|
G|-------2--------2-----2--------2--------2-----2-|-------------0-----------------------0----------|
D|----0-----0--------0--------0-----0--------0----|-------4--------4-----4--------4--------4-----4-|
A|------------------------------------------------|----2-----2--------2--------2-----2--------2----|
E|-3-----------------------3----------------------|-0-----------------------0----------------------|
                                                                                  every breath you
e|------------------------------------------------|------------------------------------------------|
B|-------3-----------------------5----------------|-------------0-----------------------0----------|
G|-------------5-----------------------7----------|-------2--------2-----2--------2--------2-----2-|
D|----5-----5-----5-----5-----7-----7-----7-----7-|----0-----0--------0--------0-----0--------0----|
A|-3-----------------3-----5-----------------5----|------------------------------------------------|
E|------------------------------------------------|-3-----------------------3----------------------|
   take...                     and every move you make...                           ?very bond you
e|------------------------------------------------|------------------------------------------------|
B|-------------0-----------------------0----------|------------------------------------------------|
G|-------2--------2-----2--------2--------2-----2-|-------------0-----------------------0----------|
D|----0-----0--------0--------0-----0--------0----|-------4--------4-----4--------4--------4-----4-|
A|------------------------------------------------|----2-----2--------2--------2-----2--------2----|
E|-3-----------------------3----------------------|-0-----------------------0----------------------|
   break, every step you take     i'll be watching you...                             every single
e|------------------------------------------------|------------------------------------------------|
B|-------3-----------------------5----------------|-------------0-----------------------0----------|
G|-------------5-----------------------7----------|-------2--------2-----2--------2--------2-----2-|
D|----5-----5-----5-----5-----7-----7-----7-----7-|----0-----0--------0--------0-----0--------0----|
A|-3-----------------3-----5-----------------5----|------------------------------------------------|
E|------------------------------------------------|-3-----------------------3----------------------|
   day...                           every word you say...                           every game you
e|------------------------------------------------|------------------------------------------------|
B|-------------0-----------------------0----------|------------------------------------------------|
G|-------2--------2-----2--------2--------2-----2-|-------------0-----------------------0----------|
D|----0-----0--------0--------0-----0--------0----|-------4--------4-----4--------4--------4-----4-|
A|------------------------------------------------|----2-----2--------2--------2-----2--------2----|
E|-3-----------------------3----------------------|-0-----------------------0----------------------|
   play, every night you stay     i'll be watching you...                            ?h, can't you
e|------------------------------------------------|------------------------------------------------|
B|-------3-----------------------5----------------|-------------0-----------------------0----------|
G|-------------5-----------------------7----------|-------2--------2-----2--------2--------2-----2-|
D|----5-----5-----5-----5-----7-----7-----7-----7-|----0-----0--------0--------0-----0--------0----|
A|-3-----------------3-----5-----------------5----|------------------------------------------------|
E|------------------------------------------------|-3-----------------------3----------------------|
   see...                            you belong to me...                         how my poor heart
e|------------------------------------------------|------------------------------------------------|
B|-------------3-----------------------3----------|-------------0-----------------------0----------|
G|-------5--------5-----5--------5--------5-----5-|-------2--------2-----2--------2--------2-----2-|
D|----5-----5--------5--------5-----5--------5----|----0-----0--------0--------0-----0--------0----|
A|-3-----------------------3----------------------|------------------------------------------------|
E|------------------------------------------------|-3-----------------------3----------------------|
   aches                       with every step you take                             every move you
e|------------------------------------------------|------------------------------------------------|
B|------------------------------------------------|-------5-----------------------5----------------|
G|-------------6-----------------------6----------|-------------7-----------------------7----------|
D|-------7--------7-----7--------7--------7-----7-|----7-----7-----7-----7-----7-----7-----7-----7-|
A|----7-----7--------7--------7-----7--------7----|-5-----------------5-----5-----------------5----|
E|-5-----------------------5----------------------|------------------------------------------------|
   make                              every vow you break                           every smile you
e|------------------------------------------------|------------------------------------------------|
B|-------------0-----------------------0----------|------------------------------------------------|
G|-------2--------2-----2--------2--------2-----2-|-------------0-----------------------0----------|
D|----0-----0--------0--------0-----0--------0----|-------4--------4-----4--------4--------4-----4-|
A|------------------------------------------------|----2-----2--------2--------2-----2--------2----|
E|-3-----------------------3----------------------|-0-----------------------0----------------------|
   fake, every claim you stake    i'll be watching you...
e|------------------------------------------------|------------------------------------------------|
B|-------3-----------------------5----------------|-------------0-----------------------0----------|
G|-------------5-----------------------7----------|-------2--------2-----2--------2--------2-----2-|
D|----5-----5-----5-----5-----7-----7-----7-----7-|----0-----0--------0--------0-----0--------0----|
A|-3-----------------3-----5-----------------5----|------------------------------------------------|
E|------------------------------------------------|-3-----------------------3----------------------|
     Eb(VI)                                     F(I)                                          A chord diagramEb MajorEb
     since you've gone i've been lost without a trace, i dream at night, i can only see your face
                                           A chord diagramFF                                           A chord diagramEb MajorEb
     i look around but it's you i can't replace, i feel so cold, and i long for your embrace
     i keep crying baby, baby
     please...
e|------------------------------------------------|------------------------------------------------|
B|-------------0-----------------------0----------|------------------------------------------------|
G|-------2--------2-----2--------2--------2-----2-|-------------0-----------------------0----------|
D|----0-----0--------0--------0-----0--------0----|-------4--------4-----4--------4--------4-----4-|
A|------------------------------------------------|----2-----2--------2--------2-----2--------2----|
E|-3-----------------------3----------------------|-0-----------------------0----------------------|

e|------------------------------------------------|------------------------------------------------|
B|-------3-----------------------5----------------|-------------0-----------------------0----------|
G|-------------5-----------------------7----------|-------2--------2-----2--------2--------2-----2-|
D|----5-----5-----5-----5-----7-----7-----7-----7-|----0-----0--------0--------0-----0--------0----|
A|-3-----------------3-----5-----------------5----|------------------------------------------------|
E|------------------------------------------------|-3-----------------------3----------------------|

e|------------------------------------------------|------------------------------------------------|
B|-------------0-----------------------0----------|------------------------------------------------|
G|-------2--------2-----2--------2--------2-----2-|-------------0-----------------------0----------|
D|----0-----0--------0--------0-----0--------0----|-------4--------4-----4--------4--------4-----4-|
A|------------------------------------------------|----2-----2--------2--------2-----2--------2----|
E|-3-----------------------3----------------------|-0-----------------------0----------------------|
                                                                                     oh, can't you
e|------------------------------------------------|------------------------------------------------|
B|-------3-----------------------5----------------|-------------0-----------------------0----------|
G|-------------5-----------------------7----------|-------2--------2-----2--------2--------2-----2-|
D|----5-----5-----5-----5-----7-----7-----7-----7-|----0-----0--------0--------0-----0--------0----|
A|-3-----------------3-----5-----------------5----|------------------------------------------------|
E|------------------------------------------------|-3-----------------------3----------------------|
   see...                            you belong to me...                         how my poor heart
e|------------------------------------------------|------------------------------------------------|
B|-------------3-----------------------3----------|-------------0-----------------------0----------|
G|-------5--------5-----5--------5--------5-----5-|-------2--------2-----2--------2--------2-----2-|
D|----5-----5--------5--------5-----5--------5----|----0-----0--------0--------0-----0--------0----|
A|-3-----------------------3----------------------|------------------------------------------------|
E|------------------------------------------------|-3-----------------------3----------------------|
   aches                       with every step you take                             every move you
e|------------------------------------------------|------------------------------------------------|
B|------------------------------------------------|-------5-----------------------5----------------|
G|-------------6-----------------------6----------|-------------7-----------------------7----------|
D|-------7--------7-----7--------7--------7-----7-|----7-----7-----7-----7-----7-----7-----7-----7-|
A|----7-----7--------7--------7-----7--------7----|-5-----------------5-----5-----------------5----|
E|-5-----------------------5----------------------|------------------------------------------------|
   make                              every vow you break                           every smile you
e|------------------------------------------------|------------------------------------------------|
B|-------------0-----------------------0----------|------------------------------------------------|
G|-------2--------2-----2--------2--------2-----2-|-------------0-----------------------0----------|
D|----0-----0--------0--------0-----0--------0----|-------4--------4-----4--------4--------4-----4-|
A|------------------------------------------------|----2-----2--------2--------2-----2--------2----|
E|-3-----------------------3----------------------|-0-----------------------0----------------------|
   fake, every claim you stake    i'll be watching you...                           every move you
e|------------------------------------------------|------------------------------------------------|
B|-------3-----------------------5----------------|------------------------------------------------|
G|-------------5-----------------------7----------|-------------0-----------------------0----------|
D|----5-----5-----5-----5-----7-----7-----7-----7-|-------4--------4-----4--------4--------4-----4-|
A|-3-----------------3-----5-----------------5----|----2-----2--------2--------2-----2--------2----|
E|------------------------------------------------|-0-----------------------0----------------------|
   make, every step you take      i'll be watching you...
e|------------------------------------------------|------------------------------------------------|
B|-------3-----------------------5----------------|------------------------------------------------|
G|-------------5-----------------------7----------|-------------0-----------------------0----------|
D|----5-----5-----5-----5-----7-----7-----7-----7-|-------4--------4-----4--------4--------4-----4-|
A|-3-----------------3-----5-----------------5----|----2-----2--------2--------2-----2--------2----|
E|------------------------------------------------|-0-----------------------0----------------------|
                                  i'll be watching you... (every breath you take, every move you make
e|------------------------------------------------|------------------------------------------------|
B|------------------------------------------------|-------------0-----------------------0----------|
G|-------------0-----------------------0----------|-------2--------2-----2--------2--------2-----2-|
D|-------4--------4-----4--------4--------4-----4-|----0-----0--------0--------0-----0--------0----|
A|----2-----2--------2--------2-----2--------2----|------------------------------------------------|
E|-0-----------------------0----------------------|-3-----------------------3----------------------|
   every bond you break...)       i'll be watching you...     (every single day, every word you say
e|------------------------------------------------|------------------------------------------------|
B|-------------------------------3----------------|-------------0-----------------------0----------|
G|-------------0-----------------------5----------|-------2--------2-----2--------2--------2-----2-|
D|-------4--------4-----4-----5-----5-----5-----5-|----0-----0--------0--------0-----0--------0----|
A|----2-----2--------2-----3-----------------3----|------------------------------------------------|
E|-0----------------------------------------------|-3-----------------------3----------------------|
   every game you play)           i'll be watching you... (every move you make, every vow you break
e|------------------------------------------------|------------------------------------------------|
B|-------------------------------3----------------|-------------0-----------------------0----------|
G|-------------0-----------------------5----------|-------2--------2-----2--------2--------2-----2-|
D|-------4--------4-----4-----5-----5-----5-----5-|----0-----0--------0--------0-----0--------0----|
A|----2-----2--------2-----3-----------------3----|------------------------------------------------|
E|-0----------------------------------------------|-3-----------------------3----------------------|
   every smile you fake)          i'll be watching you...     (every single day, every word you say
e|------------------------------------------------|------------------------------------------------|
B|------------------------------------------------|-------------0-----------------------0----------|
G|-------------0-----------------------0----------|-------2--------2-----2--------2--------2-----2-|
D|-------4--------4-----4--------4--------4-----4-|----0-----0--------0--------0-----0--------0----|
A|----2-----2--------2--------2-----2--------2----|------------------------------------------------|
E|-0-----------------------0----------------------|-3-----------------------3----------------------|
   every game you play)           i'll be watching you... (every breath you take, every move you make
e|------------------------------------------------|------------------------------------------------|
B|------------------------------------------------|-------------0-----------------------0----------|
G|-------------0-----------------------0----------|-------2--------2-----2--------2--------2-----2-|
D|-------4--------4-----4--------4--------4-----4-|----0-----0--------0--------0-----0--------0----|
A|----2-----2--------2--------2-----2--------2----|------------------------------------------------|
E|-0-----------------------0----------------------|-3-----------------------3----------------------|
   every bond you break...)       i'll be watching you...
e|------------------------------------------------|------------------------------------------------|
B|------------------------------------------------|-------------0-----------------------0----------|
G|-------------0-----------------------0----------|-------2--------2-----2--------2--------2-----2-|
D|-------4--------4-----4--------4--------4-----4-|----0-----0--------0--------0-----0--------0----|
A|----2-----2--------2--------2-----2--------2----|------------------------------------------------|

Other versions of Every Breath You Take Acoustic

Every breath you takeChords
Every breath you take (Ver. 2)Chords
Every breath you take (Ver. 3)Chords
Every breath you take acousticChords
Every breath you takeTabs
Every breath you take (Ver. 2)Tabs

Almost there ...

Sign in to get your own page with links to favourite songs and more. You are just one click away...

Login with Facebook Login with Google