Log in

One click and you are in

Login with Facebook Login with Google

Why sign up and log in

Guitar Tabs Explorer
The Police bass tabs for Every breath you take (Ver. 2)

Every Breath You Take bass tab by The Police (Ver. 2)

The Police bass tabs for Every breath you take (Ver. 2)

Bass tabs

Album: Synchronicity


INTRO::

 Ab                Fm
G|----------------|----------------|----------------|----------------|
D|----------------|----------------|----------------|----------------|
A|----------------|----------------|----------------|----------------|
E|4-4-4-4-4-4-4-4-|4-4-4-4-4-4-4-4-|1-1-1-1-1-1-1-1-|1-1-1-1-1-1-1-1-|
 +  +  +  +  +  +  +  +  +  +  +  +  +  +  +  +

 Db        Eb        Ab
G|----------------|----------------|----------------|----------------|
D|----------------|----------------|----------------|----------------|
A|4-4-4-4-4-4-4-4-|6-6-6-6-6-6-6-6-|----------------|----------------|
E|----------------|----------------|4-4-4-4-4-4-4-4-|4-4-4-4-4-4-4-4-|
 +  +  +  +  +  +  +  +  +  +  +  +  +  +  +  +


VERSE 1::

Part A -->

 Ab                Fm
G|----------------|----------------|----------------|----------------|
D|----------------|----------------|----------------|----------------|
A|----------------|----------------|----------------|----------------|
E|4-4-4-4-4-4-4-4-|4-4-4-4-4-4-4-4-|1-1-1-1-1-1-1-1-|1-1-1-1-1-1-1-1-|
 +  +  +  +  +  +  +  +  +  +  +  +  +  +  +  +

 Db        Eb        Fm*
G|----------------|----------------||----------------|----------------||
D|----------------|----------------||3-3-3-3-3-------|3-3-3---3-3-1-1-||
A|4-4-4-4-4-4-4-4-|6-6-6-6-6-6-6-6-||----------3-r-3-|------3---------||
E|----------------|----------------||----------------|----------------||
 +  +  +  +  +  +  +  +   +  +  +  +  +  +  +  +

Part B -->

 Ab                Fm
G|----------------|----------------|----------------|----------------|
D|----------------|----------------|----------------|----------------|
A|----------------|----------------|----------------|----------------|
E|4-4-4-4-4-4-4-4-|4-4-4-4-4-4-4-4-|1-1-1-1-1-1-1-1-|1-1-1-1-1-1-1-1-|
 +  +  +  +  +  +  +  +  +  +  +  +  +  +  +  +

 Db        Eb        Ab
G|----------------|----------------|----------------|----------------|
D|----------------|----------------|----------------|----------------|
A|4-4-4-4-4-4-4-4-|6-6-6-6-6-6-6-6-|----------------|--------------3-|
E|----------------|----------------|4-4-4-4-4-4-4-4-|4-4-4-4-4-4-4---|
 +  +  +  +  +  +  +  +  +  +  +  +  +  +  +  +


CHORUS::

 Db        B        Ab
G|----------------|----------------|----------------|----------------|
D|----------------|--------------1-|----------------|----------------|
A|4-4-4-4-4-4-4-4-|4-2-2-2-2-2-2---|----------------|----------------|
E|----------------|----------------|4-4-4-4-4-4-4-4-|4-4-4-4-4-4-4-4-|
 +  +  +  +  +  +  +  +  +  +  +  +  +  +  +  +

 Bb                Eb
G|----------------|----------------|----------------|----------------|
D|----------------|----------------|----------------|----------------|
A|----------------|----------------|6-6-6-6-6-6-6-6-|6-6-6-6-6-6-6-6-|
E|6-6-6-6-6-6-6-6-|6-6-6-6-6-6-6-6-|----------------|----------------|
 +  +  +  +  +  +  +  +  +  +  +  +  +  +  +  +


VERSE 2: (Part A from Verse 1. Replace the Fm* for this):

  Fm
G||----------------|----------------||
D||3-3-3-3-3-3-3-3-|3-3-3-3-3-3-3-3-||
A||----------------|----------------||
E||----------------|----------------||
 +  +  +  +  +  +  +  +


BRIDGE::

 E                 F#
G|----------------|----------------|----------------|----------------|
D|2-2---2-2-2---2-|2-2---2---2---2-|----4-------4---|----4-----4---4-|
A|----------------|----------------|----------------|----------------|
E|----0-------0---|----0---0---0---|2-2---2-2-2---2-|2-2---2-2---2---|
 +  +  +  +  +  +  +  +  +  +  +  +  +  +  +  +

 E                 F#
G|----------------|----------------|----------------|----------------|
D|----2-------2---|----2-----2---2-|----4-------4---|----4-----4---4-|
A|----------------|----------------|----------------|----------------|
E|0-0---0-0-0---0-|0-0---0-0---0---|2-2---2-2-2---2-|2-2---2-2---2---|
 +  +  +  +  +  +  +  +  +  +  +  +  +  +  +  +

 E
G|----------------|----------------|
D|----2-------2---|----2-----2---2-|
A|----------------|----------------|
E|0-0---0-0-0---0-|0-0---0-0---0---|
 +  +  +  +  +  +  +  +


VERSE 3: (=VERSE 1. Replace de Fm* with this):

  Fm
G||----------------|----------------||
D||----------------|----------1-1-1-||
A||----------------|----------------||
E||1-1-1-1-1-1-1-1-|1-1-1-1-1-------||
  +  +  +  +  +  +  +  +


CHORUS::

 Db        B        Ab
G|----------------|----------------|----------------|----------------|
D|----------------|--------------1-|----------------|----------------|
A|4-4-4-4-4-4-4-4-|2-2-2-2-2-2-2---|----------------|----------------|
E|----------------|----------------|4-4-4-4-4-4-4-4-|4-4-4-4-4-4-4-4-|
 +  +  +  +  +  +  +  +  +  +  +  +  +  +  +  +

 Bb                Eb
G|----------------|----------------|----------------|----------------|
D|----------------|----------------|----------------|----------------|
A|----------------|----------------|6-6-6-6-6-6-6-6-|6-6-6-6-6-6-6-6-|
E|6-6-6-6-6-6-6-6-|6-6-6-6-6-6-6-6-|----------------|----------------|
 +  +  +  +  +  +  +  +  +  +  +  +  +  +  +  +


VERSE 4::

 Ab                Fm
G|----------------|----------------|----------------|----------------|
D|----------------|----------------|----------------|----------------|
A|----------------|----------------|----------------|----------------|
E|4-4-4-4-4-4-4-4-|4-4-4-4-4-4-4-4-|1-1-1-1-1-1-1-1-|1-1-1-1-1-1-1-1-|
 +  +  +  +  +  +  +  +  +  +  +  +  +  +  +  +

 Db        Eb        Fm
G|----------------|----------------|----------------|----------------|
D|----------------|----------------|3-3-3-3-3-3-3-3-|3-3-3-3-3-3-3-3-|
A|4-4-4-4-4-4-4-4-|6-6-6-6-6-6-6-6-|----------------|----------------|
E|----------------|----------------|----------------|----------------|
 +  +  +  +  +  +  +  +  +  +  +  +  +  +  +  +

 Db        Eb        Fm
G|----------------|----------------|----------------|----------------|
D|----------------|----------------|3-3-3-3-3-3-3-3-|3-3-3-3-1-3-1-3-|
A|4-4-4-4-4-4-4-4-|6-6-6-6-6-6-6-6-|----------------|----------------|
E|----------------|----------------|----------------|----------------|
 +  +  +  +  +  +  +  +  +  +  +  +  +  +  +  +

 Fm
G|----------------|----------------|
D|----------------|3-3-3-3-3-1-1-1-|
A|----------------|----------------|
E|1-1-1-1-1-1-1-1-|----------------|
 +  +  +  +  +  +  +  +


Outro: (repeat...):

  Ab                Fm        Db
G||----------------|----------------|----------------|----------------||
D|·----------------|----------------|----------------|----------------·|
A|·----------------|----------------|----------------|4-4-4-4-4-4-4-6-·|
E||4-4-4-4-4-4-4-4-|4-4-4-4-4-4-4-4-|1-1-1-1-1-1-1-1-|----------------||

Other versions of Every Breath You Take

Every breath you takeBass tabs

Almost there ...

Sign in to get your own page with links to favourite songs and more. You are just one click away...

Login with Facebook Login with Google