Log in

One click and you are in

Login with Facebook Login with Google

Why sign up and log in

Guitar Tabs Explorer
The Police bass tabs for Does everyone stare

Bass tabs

Does Everyone Stare
             By The Police


Intro:

Verse:    x4 Pre Chorus  Intro Chorus   x2
G-------|------| |-------|  |------|------|-----|
D--3--3-|1-----| |3-3-3-3|  |------|---5--|3----|
A-3--3--|---1--| |-------|  |3--5--|6-----|-----|
E-------|------| |-------|  |------|------|-----|


Chorus:    x2  Fade Out
G------| |------|  |--------|-------|
D--1---| |---1--|  |33333333|-------|
A-3--1-| |-3---1|  |--------|3333333|
E------| |1-----|  |--------|-------|

Tabbed By QueenofPirates

Almost there ...

Sign in to get your own page with links to favourite songs and more. You are just one click away...

Login with Facebook Login with Google