Log in

One click and you are in

Login with Facebook Login with Google

Why sign up and log in

Guitar Tabs Explorer
The Police bass tabs for De do do do de da da da (Ver. 2)

De Do Do Do De Da Da Da bass tab by The Police (Ver. 2)

The Police bass tabs for De do do do de da da da (Ver. 2)

Bass tabs with lyrics

Tuning: Standard (E A D G)

Key: A

Difficulty: Intermediate
Gtr I (E A D G) - 'Sting - Bass'

 Intro:
 Q=150
 4/4
 Gtr I
  H  E E E E   E E E E +E E Q  E E E E +E E Q  E E E E +E E Q
G|--------------||-------------------|------------------|------------------|
D|--------------||o------------------|------------------|-------------7-6--|
A|--------5-5---||o-------------5-4--|-------------5-4--|-7-7-7-7-(7)------|
E|--------------||--5-5-5-5-(5)------|-5-5-5-5-(5)------|------------------|


  1.,2.,3.       4.
  E E E E +E E E E 4x E E E E +E E Q
G|--------------------||------------------|
D|-------------5-4---o||------------------|
A|-7-7-7-7-(7)-----5-o||-7-7-7-7-(7)-5-5--|
E|--------------------||------------------|


  1st & 2nd Verses:
   Q E E E E E E  E E E E E E E E  E E E E E E E E
G||-----------------|-----------------|-------------------|
D||o----------------|-----------------|-------------------|
A||o-0--0-0-0-0-0-2-|-----------------|-4-4-4-4-4-4-4-4---|
E||-----------------|-2-2-2-2-2-2-2-2-|-------------------|

  E E E E E E E E  E E E E E E E E  E E E E E E E E  E E E E E E E E
G|-----------------|-----------------|-----------------|------------------|
D|---------2---2---|-----------------|-----------------|------------------|
A|-4-4-4-4---4---4-|-2-0-0-0-0-0-0-2-|-----------------|-4-4-4-4-4-4-4-4--|
E|-----------------|-----------------|-2-2-2-2-2-2-2-2-|------------------|


  E E E E E E E E  E E E E E E E E  E E E E E E E E  E E E E E E E E
G|-----------------|-----------------|-----------------|------------------|
D|---------2---2---|-----------------|-----------------|------------------|
A|-4-4-4-4---4---4-|-2-0-0-0-0-0-0-2-|-----------------|-4-4-4-4-4-4-4-4--|
E|-----------------|-----------------|-2-2-2-2-2-2-2-2-|------------------|


  E E E E E E E E  E E E E E E E E  E E E E E E E E  E E E E E E E E
G|-----------------|-----------------|-----------------|------------------|
D|---------2---2---|-----------------|-----------------|------------------|
A|-4-4-4-4---4---4-|-2-0-0-0-0-0-0-2-|-----------------|-4-4-4-4-4-4-4-4--|
E|-----------------|-----------------|-2-2-2-2-2-2-2-2-|------------------|


           Pre-Chorus:
  E E E E E E E E  Q Q E E E E  E E E E E E E E  E E E E E E E E
G|-----------------||---------------|-----------------|------------------|
D|---------2---2---||---------------|-----------------|------------------|
A|-4-4-4-4---4---4-||-0--0--0-0-0-0-|-0-0-0-0-0-0-0-0-|-7-7-7---7---7----|
E|-----------------||---------------|-----------------|-------0---0---0--|


  E E E E E E E E  E E E E E E E E  E E E E E E E E  E E E E E E E E
G|-----------------|-----------------|-----------------|------------------|
D|-----------------|---------7---7---|-7-------7---7---|------------------|
A|-7-7-----7---7-7-|-0-0-0-0---0---0-|---0-0-0---0---0-|-7-----7-7-----7--|
E|-----0-0---0-----|-----------------|-----------------|---0-0-----0-0----|


          Chorus:
          Segno $
  E E E E E E Q   E E E E +E E Q  E E E E +E E Q  E E E E +E E Q
G|----------------||------------------|------------------|-------------------|
D|----------------||------------------|------------------|-------------7-6---|
A|---7---7---5-5--||-------------5-4--|-------------5-4--|-7-7-7-7-(7)-------|
E|-0---0----------||-5-5-5-5-(5)------|-5-5-5-5-(5)------|-------------------|


  E E E E +E E E E  E E E E +E E Q  E E E E +E E Q  E E E E +E E Q
G|-------------------|------------------|------------------|-------------------|
D|-------------5-4---|------------------|------------------|-------------7-6---|
A|-7-7-7-7-(7)-----5-|-------------5-4--|-------------5-4--|-7-7-7-7-(7)-------|
E|-------------------|-5-5-5-5-(5)------|-5-5-5-5-(5)------|-------------------|


  E E E E +E E E E  E E E E +E E Q  E E E E +E E Q  E E E E +E E Q
G|-------------------|------------------|------------------|-------------------|
D|-------------5-4---|------------------|------------------|-------------7-6---|
A|-7-7-7-7-(7)-----5-|-------------5-4--|-------------5-4--|-7-7-7-7-(7)-------|
E|-------------------|-5-5-5-5-(5)------|-5-5-5-5-(5)------|-------------------|


                                   To Coda
  E E E E +E E E E  E E E E +E E Q  E E E E +E E Q  E E E E +E E Q
G|-------------------|------------------|------------------|-------------------|
D|-------------5-4---|------------------|------------------|-------------7-6---|
A|-7-7-7-7-(7)-----5-|-------------5-4--|-------------5-4--|-7-7-7-7-(7)-------|
E|-------------------|-5-5-5-5-(5)------|-5-5-5-5-(5)------|-------------------|


                      Bridge:
  1.         2.
  E E E E +E E Q   E E E E +E E Q   H  H   H  H   H  H
G|-------------------||------------------||-----------|-----------|-----------|
D|------------------o||------------------||-----------|-----------|-----------|
A|-7-7-7-7-(7)-5-5--o||-7-7-7-7-(7)-5-5--||-----------|-----------|-----------|
E|-------------------||------------------||------7----|------3----|------5----|


  H  H   H  H   H  H   Q E E Q E E
G|-----------|-----------|-----------|----------------|
D|-----------|-----------|-----------|----------------|
A|-----------|------2----|-----------|-0--0-0-0--0-0--|
E|------0----|-----------|------3----|----------------|


  Q E E Q E E  Q E E Q E E  Q E E Q E E  E E E E E E E E
G|---------------|---------------|---------------|------------------|
D|---------------|---------------|---------------|------------------|
A|-0--0-0-0--0-0-|-0--0-0-0--0-0-|-0--0-0-0--0-0-|-7-7-7-7-7-7-7-7--|
E|---------------|---------------|---------------|------------------|


                  Dal Segno al Coda  Coda &
  E E E E E E E E  E E E E E E E E  E E E E E E Q   E E E E E E Q
G|-----------------|-----------------|----------------||-----------------||
D|-----------------|-----------------|----------------||-----------------||
A|-7-7-7-7-7-7-7-7-|-7-7-7-7-7-7-7-7-|-7-7-7-7-7-5-5--||-7-7-7-7---5-5---||
E|-----------------|-----------------|----------------||-----------------||


 Outro:
  Q Q Q E E  E E E E E E E E  E E E E E E E E  E E E E E E E E
G|--------------|-----------------|-----------------|------------------|
D|--------------|-----------------|-----------------|---------2---2----|
A|-0--0--0--0-2-|-----------------|-4-4-4-4-4-4-4-4-|-4-4-4-4---4---4--|
E|--------------|-2-2-2-2-2-2-2-2-|-----------------|------------------|


  E E Q Q E E  E E Q Q E E  E E Q Q E E  Q Q Q E E
G|---------------|---------------|---------------|---------------|
D|---------------|---------------|---------------|-------2----2--|
A|-2-0-0--0----2-|---------------|-4-4-4--4----4-|-4--4-----4----|
E|---------------|---2-2--2----2-|---------------|---------------|


   Q Q Q E E  E E Q Q Q  Q Q Q Q  E E Q Q E E 4x
G||---------------|--------------|-------------|----------------||
D||o--------------|--------------|-------------|--------2----2-o||
A||o-0--0--0--0-2-|--------------|-4--4--4--4--|-4-4-4-----4---o||
E||---------------|-2-2-2--2--2--|-------------|----------------||

************************************
Duration Legend

W - whole; H - half; Q - quarter; E - 8th; S - 16th; a - acciaccatura;
+ - note tied to previous; . - note dotted;
Duration letters will always appear directly above the note/fret number it represents the
duration for. Duration letters with no fret number below them represent rests.
Uncapitalized letters represent notes that are staccato (1/2 duration).

| (n) - note tied to previous
************************************

Other versions of De Do Do Do De Da Da Da

De do do do de da da daBass tabs

Almost there ...

Sign in to get your own page with links to favourite songs and more. You are just one click away...

Login with Facebook Login with Google