Log in

One click and you are in

Login with Facebook Login with Google

Why sign up and log in

Guitar Tabs Explorer
The Police bass tabs for Darkness (Ver. 2)

Bass tabs

Tuning: Standard tuning


Tabbed by: bassm99
E-mail: alanmatthews1966@yahoo.co.uk
Tuning: E, A, D, G



Intro: (Play Twice) (First slide down note only play Once)

G|----------------------------------------------------------------------------|
D|----------------------------------------------------------------------------|
A|--14\---7-7-7-7--------------------2----------------------------------------|
E|----------------7-7-7-(x4)---5-2-3----5-2-3-0-(x2)--------------------------|


Verse: (Play Twice)

G|----------------------------------------------------------------------------|
D|----------------------------------------------------------------------------|
A|--7-7-7-7--------------------2----------------------------------------------|
E|----------7-7-7-(x4)---5-2-3----5-2-3-0-(x2)--------------------------------|


Instrumental:

G|----------------------------------------------------------------------------|
D|----------------------------------------------------------------------------|
A|--7-7-7-7--------------------2----------------------------------------------|
E|----------7-7-7-(x4)---5-2-3---(x3)---5-2-3-0-(x1)--------------------------|

Repeat Verse: (Play Once)


Instrumental:

G|----------------------------------------------------------------------------|
D|----------------------------------------------------------------------------|
A|--7-7-7-7--------------------2----------------------------------------------|
E|----------7-7-7-(x4)---5-2-3----5-2-3-0-(x2)--------------------------------|

Repeat Verse: (Play Once)


Ending: (Fading Out)

G|----------------------------------------------------------------------------|
D|----------------------------------------------------------------------------|
A|--7-7-7-7--------------------2----------------------------------------------|
E|----------7-7-7-(x4)---5-2-3----5-2-3-0-(x2)--------------------------------|

End: (Fades Out)

G|----------------------------------------------------------------------------|
D|----------------------------------------------------------------------------|
A|--7-7-7-7---------7-7-7-7---------------------------------------------------|
E|----------7-7-7-------------------------------------------------------------|

Darkness bass tab

The Police bass tabs for Darkness (Ver. 2) "Darkness" from the album "Ghost In The Machine" (1981).

Written by S.Copeland.

Other versions of Darkness

DarknessBass tabs

Almost there ...

Sign in to get your own page with links to favourite songs and more. You are just one click away...

Login with Facebook Login with Google