Log in

One click and you are in

Login with Facebook Login with Google

Why sign up and log in

Guitar Tabs Explorer
Poison The Well tabs for Slice paper wrists  verse

Slice Paper Wrists Verse tab - Poison The Well

Poison The Well tabs for Slice paper wrists  verse

Guitar tabs

Ok, now the verse part....
still in drop d people......

tabbed by steve martenson
chasethefallenstar@hotmail.com

rhythm riff
---------------------
---------------------
------------5--------
0-----3-----5-----1--
0-----3-----3-----1--
0-----3-----------1--x2  guitar one
---------------------------
---------------------------
--7--10---10/9--10/12--7--7
--x---x----x-x---x-x---x--x
--5---8----8/7---8/10--5--6 X2


call this the "breakdown riff"
--------------
--------------
--------------
-0-0---0-0-0-0
-0-0---0-0-0-0
-0-0---0-0-0-0


i'm!!
--------------
--------------
--------------
-0-0---0-0-0-0
-0-0---0-0-0-0
-0-0---0-0-0-0 x 4

guitar two plays that breakdown riff again the same count.....over this:
guitar one
--10--10--10--12-13---
----10--10--10--------
----------------------
----------------------
----------------------
----------------------x4


then this part with both guitars
------------------
------------------
-------------8/7--
-0--0--0--0--x-x--
-0--0--0--0--6/5--
-0--0--0--0-------x8

then the breakdown riff
then hold out the open d


to be continued......

Almost there ...

Sign in to get your own page with links to favourite songs and more. You are just one click away...

Login with Facebook Login with Google