Log in

One click and you are in

Login with Facebook Login with Google

Why sign up and log in

Guitar Tabs Explorer
Poison The Well tabs for My mirror no longer reflects

My Mirror No Longer Reflects tab by Poison The Well

Poison The Well tabs for My mirror no longer reflects

Guitar tabs with lyrics

Title: My Mirror No Longer Refelcts
CD: Opposite of December...
Words and Music by: Poison the Well

                and Sean Downing
Explanation of Tab:
/     slide
PM    palm mute
|.3.| triplet


This song is actually played with two guitars, but the parts are so
similar that it can be done with one.

Standard A chord diagramD MajorD Tuning (DAFCGD)

Part A chord diagramA augmentedA
              |.3.|                       |.3.|
|-----------------------|-----------------------|
|-----------------------|-----------------------|
|-8-8---8-8-8-----------|-8-8---8-8-8-----------|
|-6-6---6-6-6-----------|-6-6---6-6-6-----------|
|-4-4---4-4-4-----------|-4-4---4-4-4-----------|
|-----0-------0-0-0-0-0-|-----0-------0-0-0-0-0-|
      PM      PM......|       PM      Pm......|


Part A chord diagramBB
|-------------------------------|---------------------|
|-------------------------------|---------------------|
|-11-11-11-11-11/12-12-12-12-12-|---------------------|
|-9--9--9--9--9/-10-10-10-10-10-|---------------------|
|-9--9--9--9--9/-10-10-10-10-10-|-2-2-2-2-2-2-2-2-2-2-|
|-------------------------------|-0-0-0-0-0-0-0-0-0-0-|


Part A chord diagramC majorC
|---------------------------------|---------------------------------|
|---------------------------------|---------------------------------|
|-----4-------0-------0-------0---|-----0-------0-------0-------0---|
|---2---2---0---0---4---4---5---5-|---5---5---5---5---5---5---5---5-|
|-3-------2-------5-------7-------|-7-------7-------7-------7-------|
|---------------------------------|---------------------------------|
 Clean..................| Dist....................................|


Fill 1
|-------------------------|
|-------------------------|
|-------------------------|
|-5-5-5-5-4-4-4-4-7-7-7-7-|
|-3-3-3-3-2-2-2-2-5-5-5-5-|
|-------------------------|


Part A chord diagramD MajorD
|---------------------------|-----------------------------------|
|---------------------------|-----------------------------------|
|-9-----7-----11-----12-----|-----------------------------------|
|---------------------------|-----------------------------------|
|---------------------------|-2-2-2-2-2-2-2-2-2-2-2-2-2-2-2-2-2-|
|---0-0---0-0----0-0----0-0-|-0-0-0-0-0-0-0-0-0-0-0-0-0-0-0-0-0-|


Fill 2
|------------------------|---------------------------------|
|------------------------|---------------------------------|
|-9-----7-----11---------|---------------------------------|
|--------------------4-4-|-4-4-4-4-4-4-4-4-4-4-4-4-4-4-4-4-|
|--------------------2-2-|-2-2-2-2-2-2-2-2-2-2-2-2-2-2-2-2-|
|---0-0---0-0----0-0-0-0-|-0-0-0-0-0-0-0-0-0-0-0-0-0-0-0-0-|

|---------------------------------|
|---------------------------------|
|---------------------------------|
|-4-4-4-4-4-4-4-4-4-4-4-4-4-4-----|
|-2-2-2-2-2-2-2-2-2-2-2-2-2-2-2---|
|-0-0-0-0-0-0-0-0-0-0-0-0-0-0-0---|



ORDER:
Part A chord diagramA augmentedA
Patr A chord diagramBB
Part A chord diagramA augmentedA
Part A chord diagramC majorC
Fill 1
Part A chord diagramD MajorD
Fill 2
Part A chord diagramC majorC (slower and all clean)


That should be it.  Questions, corrections, and requests welcome
(mtj3@pitt.edu).

Slice Paper Wrists should be coming soon.  I only have one or two more
parts left.  Unitl then...

Other versions of My Mirror No Longer Reflects

My mirror no longer reflects (Ver. 2)Tabs

Almost there ...

Sign in to get your own page with links to favourite songs and more. You are just one click away...

Login with Facebook Login with Google