Log in

One click and you are in

Login with Facebook Login with Google

Why sign up and log in

Guitar Tabs Explorer
Poison bass tabs for Were an american band

Bass tabs

Intro:

G|---------------------------------------------------------------|
D|---------------------------------------------------------------|
A|4-4-4-4-4-4-4-4-4-4-4-4-4-4-4-4-2-2-2-2-2-2-2-2-2-2-2-2-2-2-2-2|
E|---------------------------------------------------------------|

G|---------------------------------------------------------------|
D|---------------------------------------------------------------|
A|0-0-0-0-0-0-0-0-2-2-2-2-2-2-2-2-4-4-4-4-4-4-4-4-4-4-4-4-4-4-2-2|
E|---------------------------------------------------------------|

Verse 1:

G|----------------------------------|
D|-----------------------2-1--------|
A|-4-4--4-4----242~-22-4-----2------|
E|----------46----------------------|(x3)

G|---------------------------------------------------------------|
D|---------------------------------------------------------------|
A|9-9-9-9-9-9-9-9-4-4-4-4-4-4-4-4-2-2-2-2-2-2-2-2-4-4-4-4-4-4-4-4|
E|---------------------------------------------------------------|

G|---------------------------------------------------------------|
D|---------------------------------------------------------------|
A|9-9-9-9-9-9-9-9-4-4-4-4-4-4-4-4-7-7-7-7-7-7-7-7-9-9-9-9-9-9-9-9|
E|---------------------------------------------------------------|


Chorus:

G|----------------------------------------------------------------|
D|----------------------------------------------------------------|
A|-4-4-4-4-4-4-4-4-4-4-4-4-4-4-4-4-2-2-2-2-2-2-2-2-2-2-2-2-2-2-2-2|
E|----------------------------------------------------------------|

G|---------------------------------------------------------------|
D|---------------------------------------------------------------|
A|0-0-0-0-0-0-0-0-2-2-2-2-2-2-2-2-4-4-4-4-4-4-4-4-4-4-4-4-4-4-2-2|
E|---------------------------------------------------------------|


Verse:

G|----------------------------------|
D|-----------------------2-1--------|
A|-4-4--4-4----242~-22-4-----2------|
E|----------46----------------------|(x3)

G|---------------------------------------------------------------|
D|---------------------------------------------------------------|
A|9-9-9-9-9-9-9-9-4-4-4-4-4-4-4-4-2-2-2-2-2-2-2-2-4-4-4-4-4-4-4-4|
E|---------------------------------------------------------------|

G|---------------------------------------------------------------|
D|---------------------------------------------------------------|
A|9-9-9-9-9-9-9-9-4-4-4-4-4-4-4-4-7-7-7-7-7-7-7-7-9-9-9-9-9-9-9-9|
E|---------------------------------------------------------------|


Chorus:

G|----------------------------------------------------------------|
D|----------------------------------------------------------------|
A|-4-4-4-4-4-4-4-4-4-4-4-4-4-4-4-4-2-2-2-2-2-2-2-2-2-2-2-2-2-2-2-2|
E|----------------------------------------------------------------|

G|---------------------------------------------------------------|
D|---------------------------------------------------------------|
A|0-0-0-0-0-0-0-0-2-2-2-2-2-2-2-2-4-4-4-4-4-4-4-4-4-4-4-4-4-4-2-2|
E|---------------------------------------------------------------|(x2)


Solo:

G|----------------------------------------------------------------|
D|----------------------------------------------------------------|
A|-9-9-9-9-9-9-9-9-4-4-4-4-4-4-4-4-2-2-2-2-2-2-2-2-4-4-4-4-4-4-4-4|
E|----------------------------------------------------------------|

G|---------------------------------------------------------------|
D|---------------------------------------------------------------|
A|9-9-9-9-9-9-9-9-4-4-4-4-4-4-4-4-7-7-7-7-7-7-7-7-9-9-9-9-9-9-9-9|
E|---------------------------------------------------------------|


Chorus:

G|------------------------------------------------------------------|
D|------------------------------------------------------------------|
A|-4---------------2---------------0-------2-------4-------------22-|
E|------------------------------------------------------------------|

G|----------------------------------------------------------------|
D|----------------------------------------------------------------|
A|-4-4-4-4-4-4-4-4-4-4-4-4-4-4-4-4-2-2-2-2-2-2-2-2-2-2-2-2-2-2-2-2|
E|----------------------------------------------------------------|

G|---------------------------------------------------------------|
D|---------------------------------------------------------------|
A|0-0-0-0-0-0-0-0-2-2-2-2-2-2-2-2-4-4-4-4-4-4-4-4-4-4-4-4-4-4-2-2|
E|---------------------------------------------------------------|


Outro:

G|--------------------------------|
D|-------------------------6-4-2--|
A|-4-4-4-4-4-4-4-4-4-2-2----------|
E|--------------------------------|(x3)


End On:

G|-----------|
D|-----------|
A|-4-----4---|
E|-----------|


************************************

| ~ Vibrato

Almost there ...

Sign in to get your own page with links to favourite songs and more. You are just one click away...

Login with Facebook Login with Google