Log in

One click and you are in

Login with Facebook Login with Google

Why sign up and log in

Guitar Tabs Explorer
Philipp Poisel tabs for Wie soll ein mensch

Guitar tabs with lyrics

Wie soll ein Mensch - Philipp Poisel

Capo 1st fret

Chords used: D5: xx0230
Intro:

|---------------------------------0----|  4X
|------3--------3--------3----------3--|
|----0-- 0----0---0----0---0----2------|
|-----------------------------0--------|
|-----------3--------------------------|
|--0-----------------3-----------------|


Verse:
A chord diagramG+G
Stell dich vor meine Mitte | Leg dich in jede Figur
A chord diagramG+G
Werf dich in jeden meiner Schritte | Ich Tanz für dich, wohin du willst
A chord diagramG+G
Ich geh, rüber ans Fenster | Um zu sehen ob, die Sonne noch scheint
A chord diagramG+G
Hab so oft, bei schwerem Gewitter | in deine Hände geweint


Chorus:
A chord diagramD5D5
Wie soll ein Mensch das ertragen     |    Dich alle Tage zu sehen
A chord diagramD5D5
Ohne es einmal zu wagen              |    Dir in die Augen zu sehen


Verse:
A chord diagramG+G
Stell dich vor meine Mitte | Leg dich in jede Figur
A chord diagramG+G
Werf dich in jeden meiner Schritte | Ich führe dich, wohin du willst


Chorus:
A chord diagramD5D5
Wie soll ein Mensch das ertragen     |    Dich alle Tage zu sehen
A chord diagramD5D5
Ohne es einmal zu wagen              |    Dir in die Augen zu sehen


Bridge: (Just hit the strings one time each beat!)
A chord diagramD5D5
Könnt ich einen einzigen Tag nur  |  In meinem Leben dir gefallen
A chord diagramD5D5
Um dann ein einziges Mal nur  |  In deine Arme zu fallen


Chorus:
A chord diagramD MajorD
Wie soll ein Mensch das ertragen     |    Dich alle Tage zu sehen
A chord diagramD MajorD
Ohne es einmal zu wagen              |    Dir in die Augen zu sehen

End:

|---------------------------------0----|  2X
|------3--------3--------3----------3--|
|----0-- 0----0---0----0---0----2------|
|-----------------------------0--------|
|-----------3--------------------------|
|--0-----------------3-----------------|


A chord diagramG+G
Leg dich in jede Figur


Thats it ! Hope you have fun with it. If you are playing this with a band
The first Guitar can play the Chords Em7, Cadd9, A chord diagramG+G and D5, the second Guitar can
play the Intro all through the song, and the third Guitar can play this little

Solo I added below this text. As third Guitar you can
Also play nearly play it all through the song. Sorry for bad enlish, I am
German,  Have fun and keep on playing.

3rd Guitar:

|-7-----7-----5-----5------| Reapeat as often you need
|---8-----8-----7-----7----|
|-----7-----7-----7-----7--|
|--------------------------|
|--------------------------|
|--------------------------|

Other versions of Wie Soll Ein Mensch

Wie soll ein menschChords

Almost there ...

Sign in to get your own page with links to favourite songs and more. You are just one click away...

Login with Facebook Login with Google