Log in

One click and you are in

Login with Facebook Login with Google

Why sign up and log in

Guitar Tabs Explorer
Philipp Poisel tabs for Herr reimer

Guitar tabs with lyrics

Halli Hallo

Dieser Tab soll nur als grobe Orientierung dienen und kann je nach Belieben abgewandelt
werden. Poisel spielt in jeder Version andere Variationen des Pickingmusters.
Zum Spielen des Stückes reicht es die tiefe E-Seite auf ein A chord diagramD MajorD runter zustimmen. Viel Spaß
mit dem Tab :)

No Capo
Stimmung: Double Drop A chord diagramD MajorD  DADGBd
Intro: 4x
d------------------------------------|
B------------------------------------|
G---------------------------0--------|
D---7---7---7---7---7---7-------7----|
A-5---5---5---5---5---5---5---5------|
D------------------------------------|

Strophe 1:

Herr Reimer steht am Fenster und isst Brote
und ich hau jeden Tag zehn Euro raus.
Es ist neun und ich hab wieder schon kein Bock mehr.
Herr Reimer kommt jeden Tag um fünf nach Haus.

Kollege kommt in Halle und bringt Kaffee,
schimpft auf Firma doch Herr Reimer bleibt stumm.
Seit 20 Jahren steht er hier an der Maschine
und ich fall schon nach zwei Wochen um.

Herr Reimer fuchtelt immer mit den Händen,
seine Augen leuchten, wenn er was erklärt.
Er kriegt sechs und ich krieg sieben Euro.
Er hat sich niemals deshalb beschwert.

Herr Reimer bekommt glasige Augen,
wenn er von Russland erzählt.
Zwei Söhne von ihm sind dort noch immer,
ich weiß nicht wie sehr ihn das quält.

Strophen 1 -Tab:  8x

d------------------------------------|
B------------------------------------|
G------------------------------------|
D---7---7---7---7---7---7---7---7----|
A-5---5---7---7---9---9---9---9------|
D------------------------------------|

d------------------------------------|
B------------------------------------|
G------------------------------------|
D---7---7---7---7---7---7---7---7----|
A-9---9---7---7---5---5---5---5------|
D------------------------------------|


Refrain:

Herr Reimer war noch niemals auf Mallorca,
bald ist er 63, und dann fliegt er hin.
Ich hab' mich nicht getraut ihm zu verraten,
wo ich mit 23 Jahren schon überall gewesen bin.


Refrain-Tab: 4x

d------------------------------------|
B------------------------------------|
G------------------------------------|
D---7---7---7---7---7---7---7---7----|
A-----------------0---0---0---0------|
D-4---4---4---4----------------------|


d------------------------------------|
B------------------------------------|
G------------------------------------|
D---7---7---7---7---7---7---7---7----|
A-5---5---5---5---5---5---5---5------|
D------------------------------------|


Strophe 2:

Erst kürzlich besuchte ich Herr Reimer in der Firma.
Er hämmerte grad irgendein Scharnier.
Ich schaute rüber zu Frau Fischers Platz am Werkzeug,
sie hatte Krebs und ist schon lange nicht mehr hier.

Erst kürzlich hat Herr Reimer seine Mutter beerdigt,
dabei hat er doch sowieso kein Geld.
Und ich, ich hab ihm wieder mal verschwiegen,
dass ich Schulden mache von meinen Reisen in die Welt.

Strophen 2 -Tab: 4x

d------------------------------------|
B------------------------------------|
G------------------------------------|
D---7---7---7---7---7---7---7---7----|
A-5---5---7---7---9---9---9---9------|
D------------------------------------|


d------------------------------------|
B------------------------------------|
G------------------------------------|
D---7---7---7---7---7---7---7---7----|
A-9---9---7---7---5---5---5---5------|
D------------------------------------|


Refrain:

Herr Reimer war noch niemals auf Mallorca,
bald ist er 63, und dann fliegt er hin.
Ich hab' mich nicht getraut ihm zu verraten,
wo ich mit 23 Jahren schon überall gewesen bin,
wo ich mit 23 Jahren schon überall gewesen bin.


Refrain-Tab: 5x

d------------------------------------|
G------------------------------------|
G------------------------------------|
D---7---7---7---7---7---7---7---7----|
A-----------------0---0---0---0------|
D-4---4---4---4----------------------|


d------------------------------------|
B------------------------------------|
G------------------------------------|
D---7---7---7---7---7---7---7---7----|
A-5---5---5---5---5---5---5---5------|
D------------------------------------|

Other versions of Herr Reimer

Herr reimerChords

Almost there ...

Sign in to get your own page with links to favourite songs and more. You are just one click away...

Login with Facebook Login with Google