Log in

One click and you are in

Login with Facebook Login with Google

Why sign up and log in

Guitar Tabs Explorer
Philipp Poisel tabs for Eiserner steg acoustic

Guitar tabs

Hey,
this is my first tab. So if you got any advices, write them into the comments.

The chords are taken from the chords version. The Riff is important here.

A chord diagramC# minorC#m [046600]
A chord diagramAsus2Asus2 [00220]
A chord diagramE MajorE [012200]

Capo 2


Main Riff:

 A chord diagramAsus2Asus2    A chord diagramE MajorE                          A chord diagramAsus2Asus2    A chord diagramE MajorE
E-------0-------0-|-------0-------0-|-------0-------0-|-------0-------0-|
B-----0-------0---|-----0-------0---|-----0-------0---|-----0-------0---|
G---2-------1-----|---1-------1-----|---2-------1-----|---1-------1-----|
D-----------------|-----------------|-----------------|-----------------|
A-0---------------|-----------------|-0---------------|-----------------|
E---------0-------|-0-------0-------|---------0-------|-0-------0-------|

 A chord diagramAsus2Asus2    A chord diagramC# minorC#m                        A chord diagramAsus2Asus2    A chord diagramE MajorE
E-------0-------0-|-------0-------0-|-------0-------0-|-------0-------0-|
B-----0-------0---|-----0-------0---|-----0-------0---|-----0-------0---|
G---2-------6-----|---6-------6-----|---2-------1-----|---1-------1-----|
D-----------------|-----------------|-----------------|-----------------|
A-0-------4-------|-4-------4-------|-0---------------|-----------------|
E-----------------|-----------------|---------0-------|-0-------0-------|


Intro and the last part are a bit diffrent, but if you know the Riff itself you can play them too.

Other versions of Eiserner Steg Acoustic

Eiserner stegChords
Eiserner steg acousticChords

Almost there ...

Sign in to get your own page with links to favourite songs and more. You are just one click away...

Login with Facebook Login with Google