Log in

One click and you are in

Login with Facebook Login with Google

Why sign up and log in

Guitar Tabs Explorer
Poets Of The Fall bass tabs for Carnival of rustver 3

Carnival Of Rustver 3 bass tab - Poets Of The Fall

Poets Of The Fall bass tabs for Carnival of rustver 3

Bass tabs

STANDAR TUNE


      [After the intro]

4|---------------------------------------|\
3|--8------11------1------4------6-------| \ X4
2|---------------------------------------| /
1|---------------------------------------|/
         [Chorus]

4|--1------4------6-------------4--------|\
3|-----------------------4---------------| \
2|---------------------------------------| /X4
1|---------------------------------------|/


   [over from the chorus to the home]

4|--6-------------4------1~~~------------|\
3|---------4-----------------------------| \X1
2|---------------------------------------| /
1|---------------------------------------|/


     [home]

4|---------11------1------4------6-------|\
3|---------------------------------------| \
2|---------------------------------------| /X1
1|---------------------------------------|/

4|--8------11------1------4------6-------|\
3|---------------------------------------| \X3
2|---------------------------------------| /
1|---------------------------------------|/

      [chorus]

4|--1------4------6-------------4--------|\
3|-----------------------4---------------| \X2
2|---------------------------------------| /
1|---------------------------------------|/

~~~~~~~~~~~~GUITAR AND VOCALS~~~~~~~~~~~~~


4|--1-----4------6-------------4---------|\
3|----------------------4----------------| \X2
2|---------------------------------------| /
1|---------------------------------------|/


     [end]

4|--6-------------4------1~~~------------|\
3|---------4-----------------------------| \
2|---------------------------------------| /X1
1|---------------------------------------|/

Almost there ...

Sign in to get your own page with links to favourite songs and more. You are just one click away...

Login with Facebook Login with Google