Log in

One click and you are in

Login with Facebook Login with Google

Why sign up and log in

Guitar Tabs Explorer
P.O.D. bass tabs for Lost in forever

Bass tabs

Band: P.O.D.
Album: Murdered Love


Intro
F|--------------------------|
C|--------------------------|
G|-------222555------222----|
D|-333555------333555---333-|
A|--------------------------|

F|---------------------------|
C|---------------------------|
G|--------7-7777-------7-7-7-| x2
D|-0-0000--------0-0-0-------|
A|---------------------------|

F|-------------------------|
C|-------------------------|
G|-33333-33333-3-3-3-3-3-3-|
D|-------------------------|
A|-------------------------|

--------------------------|
--------------------------|
-------222555------222----|
-333555------333555---333-|
--------------------------|


Verse x2
 _____________ __________________
 |   x2   |    x2    |
F|-------------|------------------|
C|-------------|------------------|
G|-------7-7--7|-------10-10--10--|
D|-0-0--0------|-0-0--0-----------|
A|-------------|------------------|

 _____________ __________________________
 |   x2   |      x1      |
F|-------------|--------------------------|
C|-------------|--------------------------|
G|-------7-7--7|-------5-5--5-----------5-|
D|-0-0--0------|-0-0--0------0-0--0-5-7---|
A|-------------|--------------------------|


Chorus x2
F|---------------------------------------------------|
C|---------------------------------------------------|
G|--------7-7777-------7-7-7-------7-7-7-------7-7-7-|
D|-0-0000--------0-0-0-------0-0-0-------0-0-0-------|
A|---------------------------------------------------|

F|---------------------------|
C|---------------------------|
G|-3-3333-3-3333-3-3-3-3-3-3-|
D|---------------------------|
A|---------------------------|

--------------------------|
--------------------------|
-------222555------222----|
-333555------333555---333-|
--------------------------|


Verse x2


Chorus x2


Bridge
F|---------------------------------------------------------|
C|---------------------------------------------------------|
G|-------------------------5-------------------7~--0-7-5~--| x2
D|-0-12\--0-0-0----------------------------7~--------------|
A|--------------12\--3--0h3-3-3--5--0h5-5-5----------------|

F|------|
C|------|
G|------|
D|-0~~~-|
A|------|


Chorus x2 with D|-0~~~-| at the end of the second time


Outro
F|-------------------|
C|-------------------|
G|-------222---------|
D|-333555---333-0~~~-|

Almost there ...

Sign in to get your own page with links to favourite songs and more. You are just one click away...

Login with Facebook Login with Google