Log in

One click and you are in

Login with Facebook Login with Google

Why sign up and log in

Guitar Tabs Explorer
P.O.D. tabs for Find my way

Guitar tabs

P.O.D.
Find My Way
Payable On Death

Tuning: One full step down (A chord diagramD MajorD A chord diagramG+G A chord diagramC majorC A chord diagramFF A chord diagramA augmentedA d)

Yeah, i know, theres a lot of 'part's, but I did it to make things
simpler (If you'll believe that).
Intro:
Distorted
|-----------------------------------------------------------------|
|-----------------------------------------------------------------|
|-----------------------------------------------------------5-5---|
|-----------------------------------7-7-9-9---9-----5-5-----5-5---|
|-7-7-7-7-7~--------7-7-----7-7-----0-0-0-0---0-----5-5-----3-3---|
|-0-0-0-0-0---8-----0-0-----8-8-----0-0-0-0---0-----3-3-----------|


Verse  Pt 1:
Clean
|-----------------------------------------------------------------|
|---------------------------------------------------|
|-------------------------------------------------------|
|-----------------------------------------------------------------|
|--------------------------------------------------------------|
|-----------------------------------------------------------------|


Verse  Pt 2:
|-----------------------16----12----------------------------------|
|-------14----12--------14----12-------14----12---------12--------|
|-------16-----------------------------16---------------16-----14-|
|-----------------------------------------------------------------|
|-----------------------------------------------------------------|
|-----------------------------------------------------------------|

Chorus Pt 1:
Distorted
|-----------------------------------------------------------------|
|-----------------------------------------------------------------|
|------------------------------------------------------------5-5--|
|------------------------------------7-7-9-9---9-----5-5-----5-5--|
|-7-7-7-7-7~--------7-7-----7-7------0-0-0-0---0-----5-5-----3-3--|
|-0-0-0-0-0---8-----0-0-----8-8------0-0-0-0---0-----3-3----------|


Chorus Pt 2:
|-----------------------------------------------------------------|
|-----------------------------------------------------------------|
|-1414141414--12----14141414--12-1414141414-12-12/1515--15/1616---|
|--x-x-x-x-x---x-----x-x-x-x---x--x-x-x-x-x--x--x--x-x---x--x-x---|
|-1212121212--10----12121212--10-1212121212-10-10/1313--13/1414---|
|-----------------------------------------------------------------|


Bridge Pt 1:
|-----------------------------------------------------------------|
|-----------------------------------------------------------------|
|-----------------------------------------------------------------|
|-4-4-4-4-------------------------5-5-5-5-------------------------|
|-2-2-2-2---5---2---2-----2-------3-3-3-3---5---5-----------3-3v--|
|-----------3---0-----3p0---3v--------------3---3---5-5-5-5-------|


Bridge Pt 2:
|-----------------------------------------------------------------|
|-----------------------------------------------------------------|
|-----------------------------------------------------------------|
|-------------------------5-5-5-5-------------------------4-4-4-4-|
|-3v--3---------5-----5---3-3-3-3-------2-----2-2-----5---2-2-2-2-|
|-------3-5v--5-3-----3-------------3-3---0-3---0-----3-----------|


Bridge Pt 3:
|-----------------------------------------------------------------|
|-----------------------------------------------------------------|
|---9-9-9-9---7-----9-9-9-9---7-----9-9-9-9---7--7/10-10-10/11-11-|
|---x-x-x-x---x-----x-x-x-x---x-----x-x-x-x---x--x--x--x--x--x--x-|
|---7-7-7-7---5-----7-7-7-7---5-----7-7-7-7---5--5--8--8--8/-9--9-|
|-----------------------------------------------------------------|


Outro  Pt 1:
|-----------------------------------------------------------------|
|-----------------------------------------------------------------|
|-----------------------------------------------------------------|
|-4-4-4-4-------------------------5-5-5-5-------------------------|
|-2-2-2-2---5---2---2-----2-------3-3-3-3---5---5-----------3-3v--|
|-----------3---0-----3p0---3v--------------3---3---5-5-5-5-------|


Outro  Pt 2:
Clean w/ delay
|-----------------------------------------------------------------|
|---------------------------------------------------|
|-------------------------------------------------------|
|-----------------------------------------------------------------|
|--------------------------------------------------------------|
|-----------------------------------------------------------------|


Line up (everything is 2x unless otherwise shown):


Intro

Verse Pt 1

Verse Pt 2

Chorus Pt 1

Chorus Pt 2

Verse Pt 1     3x

Verse Pt 2

Chorus Pt 1

Chorus Pt 2

Bridge Pt 1
Brigde Pt 2

Bridge Pt 3

Outro Pt 1

Outro Pt 2     1x


Please Rate

-Guy With Guitar

Almost there ...

Sign in to get your own page with links to favourite songs and more. You are just one click away...

Login with Facebook Login with Google