Log in

One click and you are in

Login with Facebook Login with Google

Why sign up and log in

Guitar Tabs Explorer
P.O.D. tabs for Booyaka 619 rey mysterio

Guitar tabs

P.O.D

Booyaka 6-1-9 (Rey Mysterio)


Tuning - drop A chord diagramD MajorD (ebgdaD)

Intro

Guitar 1

e|----------------------------------------------------|
b|----------------------------------------------------|
g|----------------------------------------------------|
d|----------------------------------------------------|
a|-/5---5--5---5--5---5--5---5--5---5--5---5--5---5/6-|
d|-/5-0-5-/5-0-5-/5-0-5-/5-0-5-/5-0-5-/5-0-5-/5-0-5/6-|


continued...

e|-------------------------------------|--------|---|
b|-------------------------------------|--------|---|
g|-------------------------------------|--------|---|
d|-------------------------------------|--------|-4-|This last part is a variation
a|--6-----6--6-----6--6-----6--6-----6-|--------|-4-|on the end of the chorus
d|-/6-4-5h6-/6-0-5h6-/6-4-5h6-/6-0-5h6-|-4-4444-|-4-|
                                       |---p.m--|


Intro

Guitar 2

e|-------------------------|---------|
b|-------------------------|---------|
g|-7~--5-4~--5-7-8~--7-5~--|-4-0-4-0-|
d|-------------------------|---------|ends like this during the bridge and just after some verses
a|-------------------------|---------|
d|-------------------------|---------|



Verse

Pattern changes each time it's played, but all it is is this...

e|-------------------------|
b|-------------------------|
g|-------------------------|
d|-------------------------|
a|-------------------------|
d|-55555555-0---66666666---|

 |---p.m---|   |--p.m---|

That's all there is really. Will post up an update as soon as I figure all the
timings out etc, but this is the whole song.

This is also the only tab on the internet for this song that I've seen.

Email me with any questions or corrections

Almost there ...

Sign in to get your own page with links to favourite songs and more. You are just one click away...

Login with Facebook Login with Google