Log in

One click and you are in

Login with Facebook Login with Google

Why sign up and log in

Guitar Tabs Explorer
P.O.D. bass tabs for Alive

Bass tabs

Tuning: Drop C (C G C F)

Title: Alive
Album: Satellite
Intro:

  1 e + a 2 e + a 3 e + a 4 e + a   1 e + a 2 e + a 3 e + a 4 e + a
F|--------------------------------------------------|--------------------------------------------------|
C|--------------------------------------------------|--------------------------------------------------|
G|-----------------------------0--0--0--0--3--3--3--|--3--3--3-----3--------------3--3--3--3-----------|
C|--2--2--2--0--2-----------------------------------|-----------5-----------------------------5--5--0--|


  1 e + a 2 e + a 3 e + a 4 e + a   1 e + a 2 e + a 3 e + a 4 e + a
F|--------------------------------------------------|--------------------------------------------------|
C|--------------------------------------------------|--------------------------------------------------|
G|-----------------------------0--0--0--0--3--3--3--|--3--3--3-----3--------------3-----3--3--5--5--5--|
C|--2--2--2--0--2-----------------------------------|-----------5--------------------------------------|


Verse 1:

  1 e + a 2 e + a 3 e + a 4 e + a   1 e + a 2 e + a 3 e + a 4 e + a
F|--------------------------------------------------|--------------------------------------------------|
C|--------------------------------------------------|--------------------------------------------------|
G|-----------------------------0--0--0--0--3--3--3--|--3--3--3-----3--------------3--3--3--3-----------|
C|--2--2--2--0--2-----------------------------------|-----------5-----------------------------5--5--0--|


  1 e + a 2 e + a 3 e + a 4 e + a   1 e + a 2 e + a 3 e + a 4 e + a
F|--------------------------------------------------|--------------------------------------------------|
C|--------------------------------------------------|--------------------------------------------------|
G|-----------------------------0--0--0--0--3--3--3--|--3--3--3-----3--------------3--3--3--3-----------|
C|--2--2--2--0--2-----------------------------------|-----------5-----------------------------5--5--0--|

  1 e + a 2 e + a 3 e + a 4 e + a   1 e + a 2 e + a 3 e + a 4 e + a
F|--------------------------------------------------|--------------------------------------------------|
C|--------------------------------------------------|--------------------------------------------------|
G|-----------------------------0--0--0--0--3--3--3--|--3--3--3-----3--------------3--3--3--3-----------|
C|--2--2--2--0--2-----------------------------------|-----------5-----------------------------5--5--0--|


  1 e + a 2 e + a 3 e + a 4 e + a   1 e + a 2 e + a 3 e + a 4 e + a
F|--------------------------------------------------|--------------------------------------------------|
C|--------------------------------------------------|--------------------------------------------------|
G|-----------------------------0--0--0--0--3--3--3--|--3--3--3-----3--------------5--5--5--5--5--5--5--|
C|--2--2--2--0--2-----------------------------------|-----------5--------------------------------------|


Chorus 1:

  1 e + a 2 e + a 3 e + a 4 e + a   1 e + a 2 e + a 3 e + a 4 e + a
F|--------------------------------------------------|--------------------------------------------------|
C|-----------------------------------------0--0--0--|--0--2-----2--2--------2-----2--2--------2--------|
G|--3--3-----3--3--------3-----3-----3--3-----------|--------------------2-----------------2-----2-----|
C|--------------------5-----------------------------|-----------------------------------2-----------2--|


  1 e + a 2 e + a 3 e + a 4 e + a   1 e + a 2 e + a 3 e + a 4 e + a
F|--------------------------------------------------|--------------------------------------------------|
C|--------------------------------------------------|--------------------------------------------------|
G|--------------------------------------------------|--------------------------------------------------|
C|--5--5--5--5--5--5--5--5--5--5--5--5--5--0--------|--5--5--5--5--5--5--5--5--------------------------|


  1 e + a 2 e + a 3 e + a 4 e + a   1 e + a 2 e + a 3 e + a 4 e + a
F|--------------------------------------------------|--------------------------------------------------|
C|--------------------------------------------------|--------------------------------------------------|
G|--3--3-----3--3--------3-----3-----3--3-----------|--------------------------------------------------|
C|--------------------5--------------------0-----0--|--0--2-----2--2-----0--2-----2--2--0--2--2--2--0--|


  1 e + a 2 e + a 3 e + a 4 e + a   1 e + a 2 e + a 3 e + a 4 e + a
F|--------------------------------------------------|--------------------------------------------------|
C|--------------------------------------------------|--------------------------------------------------|
G|--------------------------------------------------|--------------------------------------------------|
C|--5--5--5--5--5--5--5--5--5--5--5--5--5--0--------|--5--5--5--5--5--5--5--5--5--5--5--5--5--5--5--0--|


Verse 2:

  1 e + a 2 e + a 3 e + a 4 e + a   1 e + a 2 e + a 3 e + a 4 e + a
F|--------------------------------------------------|--------------------------------------------------|
C|--------------------------------------------------|--------------------------------------------------|
G|-----------------------------0-----0--0--3--3--3--|--3--3--3-----3--------------------3--3-----------|
C|--2--2--2--0--2-----------------------------------|-----------5-----------------5--5--------5--5--0--|


  1 e + a 2 e + a 3 e + a 4 e + a   1 e + a 2 e + a 3 e + a 4 e + a
F|--------------------------------------------------|--------------------------------------------------|
C|--------------------------------------------------|--------------------------------------------------|
G|-----------------------------0-----0--0--3--3--3--|--3--3--3-----3--------------3--3--3--3--5--5--5--|
C|--2--2--2--0--2-----------------------------------|-----------5--------------------------------------|


  1 e + a 2 e + a 3 e + a 4 e + a   1 e + a 2 e + a 3 e + a 4 e + a
F|--------------------------------------------------|--------------------------------------------------|
C|--2--2--2-----------------------------------------|--------------------------------------------------|
G|-----------2-----------------0-----0--0--3--3--3--|--3--3--3-----3--------------3--3--3--3--5--5--5--|
C|--------------2-----------------------------------|-----------5--------------------------------------|


  1 e + a 2 e + a 3 e + a 4 e + a   1 e + a 2 e + a 3 e + a 4 e + a
F|--------------------------------------------------|--------------------------------------------------|
C|--2--2--2-----------------------------------------|--------------------------------------------------|
G|-----------2-----------------0-----0--0--3--3--3--|--3--3--3-----3--------------5--5--5--5--5--5--5--|
C|--------------2-----------------------------------|-----------5--------------------------------------|


Chorus 2:

  1 e + a 2 e + a 3 e + a 4 e + a   1 e + a 2 e + a 3 e + a 4 e + a
F|--------------------------------------------------|--------------------------------------------------|
C|-----------------------------------------0--0--0--|--0--2-----2--2--------2-----2--2--------2--------|
G|--3--3-----3--3--------3-----3-----3--3-----------|--------------------2-----------------2-----2-----|
C|--------------------5-----------------------------|-----------------------------------2-----------2--|


  1 e + a 2 e + a 3 e + a 4 e + a   1 e + a 2 e + a 3 e + a 4 e + a
F|--------------------------------------------------|--------------------------------------------------|
C|--------------------------------------------------|--------------------------------------------------|
G|--------------------------------------------------|--------------------------------------------------|
C|--5--5--5--5--5--5--5--5--5--5--5--5--5--0--------|--5--5--5--5--5--5--5--5--------------------------|


  1 e + a 2 e + a 3 e + a 4 e + a   1 e + a 2 e + a 3 e + a 4 e + a
F|--------------------------------------------------|--------------------------------------------------|
C|--------------------------------------------------|--------------------------------------------------|
G|--3--3-----3--3--------3-----3-----3--3--5--5--5--|--------------------------------------------------|
C|--------------------5-----------------------------|--0--2-----2--2-----0--2-----2--2--0--2--2--2--0--|


  1 e + a 2 e + a 3 e + a 4 e + a   1 e + a 2 e + a 3 e + a 4 e + a
F|--------------------------------------------------|--------------------------------------------------|
C|--------------------------------------------------|--------------------------------------------------|
G|--------------------------------------------------|--------------------------------------------------|
C|--5--5--5--5--5--5--5--5--5--5--5--5--5--0--------|--5--5--5--5--5--5--5--5--5--5--5--5--5--5--5--5--|


Breakdown:

  1 e + a 2 e + a 3 e + a 4 e + a   1 e + a 2 e + a 3 e + a 4 e + a
F|--------------------------------------------------|--------------------------------------------------|
C|--------------------------------------------------|--------------------------------------------------|
G|--------------------------------------------------|--------------------------------------------------|
C|--0--2-----3--------2-----------------------------|--0--2-----3--------2-----------------------------|


  1 e + a 2 e + a 3 e + a 4 e + a   1 e + a 2 e + a 3 e + a 4 e + a
F|--------------------------------------------------|--------------------------------------------------|
C|--------------------------------------------------|--------------------------------------------------|
G|--------------------------------------------------|--------------------------------------------------|
C|--0--2-----3--------2-----------------------------|--0--2-----3--------2----------------/14\---------|


Bridge:

  1 e + a 2 e + a 3 e + a 4 e + a   1 e + a 2 e + a 3 e + a 4 e + a
F|--------------------------------------------------|--------------------------------------------------|
C|--------------------------------------------------|--------------------------------------------------|
G|--------------------------------------------------|--------------------------------------0--0-----0--|
C|--3-----2--------------0--------------------------|--3-----2--------------0-----------0--------------|


  1 e + a 2 e + a 3 e + a 4 e + a   1 e + a 2 e + a 3 e + a 4 e + a
F|--------------------------------------------------|--------------------------------------------------|
C|--------------------------------------------------|--------------------------------------------------|
G|--------------------------------------------------|--------------------------------------0--0--0-----|
C|--3-----2--------------0--------------------------|--3-----2--------------0-----------0-----------0--|


  1 e + a 2 e + a 3 e + a 4 e + a   1 e + a 2 e + a 3 e + a 4 e + a
F|--------------------------------------------------|--------------------------------------------------|
C|--------------------------------------------------|--------------------------------------------------|
G|--------------------------------------------------|--------------------------------------------------|
C|--3-----2--------------0--------------------------|--3-----2--------------0-----------------------0--|


  1 e + a 2 e + a 3 e + a 4 e + a   1 e + a 2 e + a 3 e + a 4 e + a
F|--------------------------------------------------|--------------------------------------------------|
C|--------------------------------------------------|--------------------------------------------------|
G|--------------------------------------------------|--------------------------------------------------|
C|--3-----2--------------0--------------------------|-(PS)\--------------------------------------------|


Chorus 3:

  1 e + a 2 e + a 3 e + a 4 e + a   1 e + a 2 e + a 3 e + a 4 e + a
F|--------------------------------------------------|--------------------------------------------------|
C|-----------------------------------------0--0--0--|--0--2-----2--2--------2-----2--2--------2--------|
G|--3--3-----3--3--------3-----3-----3--3-----------|--------------------2-----------------2-----2-----|
C|--------------------5-----------------------------|-----------------------------------2-----------2--|


  1 e + a 2 e + a 3 e + a 4 e + a   1 e + a 2 e + a 3 e + a 4 e + a
F|--------------------------------------------------|--------------------------------------------------|
C|--------------------------------------------------|--------------------------------------------------|
G|--------------------------------------------------|-----------------------------------------------5--|
C|--5--5--5--5--5--5--5--5--5--5--5--5--5--0--------|--5--5--5--5--5--5--5--5--5--5--5--5--5--5--5-----|


  1 e + a 2 e + a 3 e + a 4 e + a   1 e + a 2 e + a 3 e + a 4 e + a
F|--------------------------------------------------|--------------------------------------------------|
C|--------------------------------------------------|--------------------------------------------------|
G|--3--3-----3--3--------3-----3-----3--3--5--5--5--|--------------------------------------------------|
C|--------------------5-----------------------------|--0--2-----2--2-----0--2-----2--2--0--2--2--2--0--|


  1 e + a 2 e + a 3 e + a 4 e + a   1 e + a 2 e + a 3 e + a 4 e + a
F|--------------------------------------------------|--------------------------------------------------|
C|--------------------------------------------------|--------------------------------------------------|
G|--------------------------------------------------|-----------------------------------------0--0-----|
C|--5--5--5--5--5--5--5--5--5--5--5--5--5--0--------|--5--5--5--5--5--5--5--5--5--5--5--5--5--------2--|


Chorus 4:

  1 e + a 2 e + a 3 e + a 4 e + a   1 e + a 2 e + a 3 e + a 4 e + a
F|--------------------------------------------------|--------------------------------------------------|
C|-----------------------------------------0-----0--|--0--2-----2--2--------2-----2--2--------2--------|
G|--3--3-----3--3--------3-----3--3--3--3-----------|--------------------2-----------------2-----2-----|
C|--------------------5-----------------------------|-----------------------------------2-----------2--|


  1 e + a 2 e + a 3 e + a 4 e + a   1 e + a 2 e + a 3 e + a 4 e + a
F|--------------------------------------------------|--------------------------------------------------|
C|--------------------------------------------------|--------------------------------------------------|
G|--------------------------------------------------|--------------------------------------------------|
C|--5--5--5--5--5--5--5--5--5--5--5--5--5--0--------|--5--5--5--5--5--5--5--5-(PS)\--------------------|


  1 e + a 2 e + a 3 e + a 4 e + a   1 e + a 2 e + a 3 e + a 4 e + a
F|--------------------------------------------------|--------------------------------------------------|
C|--------------------------------------------------|--0--2-----2--2--------2-----2--2--2-----2--------|
G|--3--3-----3--3-----3--3-----3-----3--3--5-----5--|--------------------2-----------------2-----2-----|
C|--------------------------------------------------|--------------------------------------------------|


  1 e + a 2 e + a 3 e + a 4 e + a   1 e + a 2 e + a 3 e + a 4 e + a
F|--------------------------------------------------|--------------------------------------------------|
C|--5--5--5--5--5--5--5--5--5--5--5--5--5--7--------|--5--5--5--5--5--5--5--5--------------------------|
G|--------------------------------------------------|--------------------------------------------------|
C|--------------------------------------------------|--------------------------------------------------|


Outro:

  1 e + a 2 e + a 3 e + a 4 e + a   1 e + a 2 e + a 3 e + a 4 e + a
F|--------------------------------------------------|--------------------------------------------------|
C|--------------------------------------------------|--------------------------------------------------|
G|--------------------------------------------------|--------------------------------------------------|
C|--2--2--2--0--2--------------2--2--0--2--0--2-----|--2--2--2--0--2--------------2--2--0--2--0--2-----|


  1 e + a 2 e + a 3 e + a 4 e + a   1 e + a 2 e + a 3 e + a 4 e + a
F|--------------------------------------------------|--------------------------------------------------|
C|--------------------------------------------------|--------------------------------------------------|
G|--------------------------------------------------|--------------------------------------------------|
C|--2--2--2--0--2--------------2--2--0--2--0--2-----|--2--2--2--0--2--------------2--2--0--2--0--2-----|


***********************************

| PS Pick scrape
| \ Slide down
| / Slide up

***********************************

Almost there ...

Sign in to get your own page with links to favourite songs and more. You are just one click away...

Login with Facebook Login with Google