Log in

One click and you are in

Login with Facebook Login with Google

Why sign up and log in

Guitar Tabs Explorer
+44 bass tabs for When your heart stops beating

Bass tabs

  • Difficulty: Beginner
Track 3 from When Your Heart Stops Beating - When Your Heart Stops Beating


Tuning - Standard

                  Intro - X2
G |-------------------|-------------------|-------------------|-------------------|
D |-------------------|-------------------|-------------------|-------------------|
A |--0-0-0-0-0-0-0-0--|--0-0-0-0-0-0-0-0--|--3-3-3-3-3-3-3-3--|-------------------|
E |-------------------|-------------------|-------------------|--3-3-3-3-3-3-3-0--|

G |-------------------|-------------------|-------------------|-------------------|
D |-------------------|-------------------|-------------------|--5-5-5-5-5-5-3-2--|
A |--0-0-0-0-0-0-0-0--|--0-0-0-0-0-0-0-0--|--3-3-3-3-3-3-3-3--|-------------------|
E |-------------------|-------------------|-------------------|-------------------|

                    Verse - X2
G |---------------------|----------------------|----------------------|----------------------|
D |---------------------|----------------------|----------------------|----------------------|
A |--0----0----0--0--0--|--0--0----0--0--0--0--|--3----3----3--3--3---|----------------------|
E |---------------------|----------------------|----------------------|--3--3----3--3--3--3--|

G |---------------------|----------------------|---------------------|-------------------|
D |---------------------|--------------------------------------------|--5-5-5-5-5-5-3-2--|
A |--0----0----0--0--0--|--0--0----0--0--0--0--|--3----3----3--3--3--|-------------------|
E |---------------------|----------------------|---------------------|-------------------|

                  Chorus
G |-------------------|-------------------|-------------------|-------------------|
D |-------------------|-------------------|-------------------|-------------------| X2
A |-------------------|--3-3-3-3-3-3-3-3--|-------------------|--0-0-0-0-0-0-0-0--|
E |--1-1-1-1-1-1-1-1--|-------------------|--0-0-0-0-0-0-0-0--|-------------------|

G |-------------------|-------------------|-------------------|-------------------|
D |-------------------|-------------------|-------------------|-------------------|
A |--8-8-8-8-8-8-8-8--|--3-3-3-3-3-3-3-3--|-------------------|--0-0-0-0-0-0-0-0--|
E |-------------------|-------------------|--0-0-0-0-0-0-0-0--|-------------------|

G |-------------------|-------------------|--------------------|---------------------------|
D |-------------------|-------------------|--------------------|---------------------------|
A |--8-8-8-8-8-8-8-8--|--3-3-3-3-3-3-3-3--|--------------------|---------------------------|
E |-------------------|-------------------|--0-0-0-0-0-0-0-0/--|--12-12-12-12-12-12-12-12--|

                 Post Chorus
G |-------------------|-------------------|-------------------|-------------------|
D |-------------------|-------------------|-------------------|-------------------|
A |--0-0-0-0-0-0-0-0--|--0-0-0-0-0-0-0-0--|--3-3-3-3-3-3-3-3--|-------------------|
E |-------------------|-------------------|-------------------|--3-3-3-3-3-3-3-0--|

G |-------------------|-------------------|-------------------|-------------------|
D |-------------------|-------------------|-------------------|--5-5-5-5-5-5-3-2--|
A |--0-0-0-0-0-0-0-0--|--0-0-0-0-0-0-0-0--|--3-3-3-3-3-3-3-3--|-------------------|
E |-------------------|-------------------|-------------------|-------------------|

                  Verse II - X2
G |---------------------|----------------------|----------------------|----------------------|
D |---------------------|----------------------|----------------------|----------------------|
A |--0----0----0--0--0--|--0--0----0--0--0--0--|--3----3----3--3--3---|----------------------|
E |---------------------|----------------------|----------------------|--3--3----3--3--3--3--|

G |---------------------|----------------------|---------------------|-------------------|
D |---------------------|--------------------------------------------|--5-5-5-5-5-5-3-2--|
A |--0----0----0--0--0--|--0--0----0--0--0--0--|--3----3----3--3--3--|-------------------|
E |---------------------|----------------------|---------------------|-------------------|

                  Chorus II
G |-------------------|-------------------|-------------------|-------------------|
D |-------------------|-------------------|-------------------|-------------------| X2
A |-------------------|--3-3-3-3-3-3-3-3--|-------------------|--0-0-0-0-0-0-0-0--|
E |--1-1-1-1-1-1-1-1--|-------------------|--0-0-0-0-0-0-0-0--|-------------------|

G |-------------------|-------------------|-------------------|-------------------|
D |-------------------|-------------------|-------------------|-------------------|
A |--8-8-8-8-8-8-8-8--|--3-3-3-3-3-3-3-3--|-------------------|--0-0-0-0-0-0-0-0--|
E |-------------------|-------------------|--0-0-0-0-0-0-0-0--|-------------------|

G |-------------------|-------------------|----------------------|
D |-------------------|-------------------|----------------------|
A |--8-8-8-8-8-8-8-8--|--3-3-3-3-3-3-3-3--|----------------------|
E |-------------------|-------------------|--0-0-0-0-0-0-0-0/12--|

Rest for a moment

                 Bridge
G |----------------|----------------|----------------|--------------------------|
D |----------------|----------------|----------------|--------------------------|
A |--0--0--0----0--|--0--0--0----3--|--3--3--3-------|-----------------------0--|
E |----------------|----------------|-------------3--|--3--3--3--3--3--3--3-----|

                          Solo
G |-------------------------|--------------------------|--------------------------|--------------------------|
D |-------------------------|--------------------------|--------------------------|--------------------------|
A |--0--0--0----0--0--0--0--|--0--0--0--0--0--0--0--0--|--0--0--0--0--3--3--3--3--|--3--3--3--3--------------|
E |-------------------------|--------------------------|--------------------------|--------------3--3--3--3--|

G |--------------------------|--------------------------|--------------------------|--------------------------|
D |--------------------------|--------------------------|--------------------------|--------------5--5--5--5--|
A |--------------0--0--0--0--|--0--0--0--0--0--0--0--0--|--0--0--0--0--3--3--3--3--|--3--3--3--3--------------|
E |--3--3--3--3--------------|--------------------------|--------------------------|--------------------------|

G |--------------------------|--------------------------|--------------------------|--------------------------|
D |--5--5--3--2--------------|--------------------------|--------------------------|--------------5--5--5--5--|
A |--------------0--0--0--0--|--0--0--0--0--0--0--0--0--|--0--0--0--0--3--3--3--3--|--3--3--3--3--------------|
E |--------------------------|--------------------------|--------------------------|--------------------------|

G |--------------------|
D |--5----5----3----2--|
A |--------------------|
E |--------------------|

                Final Chorus
G |-------------------|-------------------|-------------------|-------------------|
D |-------------------|-------------------|-------------------|-------------------| X2
A |-------------------|--3-3-3-3-3-3-3-3--|-------------------|--0-0-0-0-0-0-0-0--|
E |--1-1-1-1-1-1-1-1--|-------------------|--0-0-0-0-0-0-0-0--|-------------------|

G |-------------------|-------------------|-------------------|-------------------|
D |-------------------|-------------------|-------------------|-------------------| X3
A |--8-8-8-8-8-8-8-8--|--3-3-3-3-3-3-3-3--|-------------------|--0-0-0-0-0-0-0-0--|
E |-------------------|-------------------|--0-0-0-0-0-0-0-0--|-------------------|

G |-------------------|-------------------|--------------------|---------------------------|
D |-------------------|-------------------|--------------------|---------------------------|
A |--8-8-8-8-8-8-8-8--|--3-3-3-3-3-3-3-3--|--------------------|---------------------------|
E |-------------------|-------------------|--0-0-0-0-0-0-0-0/--|--12-12-12-12-12-12-12-12--|

G |-------|
D |-------|
A |--0~~--|
E |-------|

Almost there ...

Sign in to get your own page with links to favourite songs and more. You are just one click away...

Login with Facebook Login with Google