Log in

One click and you are in

Login with Facebook Login with Google

Why sign up and log in

Guitar Tabs Explorer
Thelma Plum bass tabs for Better in blak

Bass tabs

(Verse 1)0:16
Gb|------------------------------------------------------|
Db|-5-5--5-5-5--5-5-5--5-5-5--5-5-5--5-5-5--5-5-5--5-5-5-|
Ab|------------------------------------------------------|
Eb|------------------------------------------------------|
Gb|------------------------------------------------------|
Db|-2-2--2-2-2--2-2-2--2-2-2--2-2-2--2-2-2--2-2-2--2-2-2-|
Ab|------------------------------------------------------|
Eb|------------------------------------------------------|

Gb|------------------------------------------------------|
Db|-5-5--5-5-5--5-5-5--5-5-5--5-5-5--5-5-5--5-5-5--5-5-5-|
Ab|------------------------------------------------------|
Eb|------------------------------------------------------|
      x4    x4    x4
Gb|---------|---------|---------|
Db|---------|---------|---------|
Ab|---------|-5-5-5-5-|---------|
Eb|-5-5-5-5-|---------|-5-5-5-5-|

 (Chorus)  x2    x2    x8    x8    x8    x8    x4    x4
Gb|---------|---------|---------|---------|---------|---------|---------|---------|
Db|---------|---------|---------|-2-2-2-2-|---------|-5-5-5-5-|---------|---------|
Ab|-3-3-3-3-|-5-5-5-5-|-3-3-3-3-|---------|-3-3-3-3-|---------|-5-5-5-5-|-3-3-3-3-|
Eb|---------|---------|---------|---------|---------|---------|---------|---------|

 (Verse2)
Gb|------------------------------------------------------|
Db|-5-5--5-5-5--5-5-5--5-5-5--5-5-5--5-5-5--5-5-5--5-5-5-|
Ab|------------------------------------------------------|
Eb|------------------------------------------------------|

Gb|------------------------------------------------------|
Db|-2-2--2-2-2--2-2-2--2-2-2--2-2-2--2-2-2--2-2-2--2-2-2-|
Ab|------------------------------------------------------|
Eb|------------------------------------------------------|

Gb|------------------------------------------------------|
Db|-5-5--5-5-5--5-5-5--5-5-5--5-5-5--5-5-5--5-5-5--5-5-5-|
Ab|------------------------------------------------------|
Eb|------------------------------------------------------|

Gb|------------------------------------------------------|
Db|-2-2--2-2-2--2-2-2--2-2-2--2-2-2--2-2-2--2-2-2--2-2-2-|
Ab|------------------------------------------------------|
Eb|------------------------------------------------------|

Gb|------------------------------------------------------|
Db|-5-5--5-5-5--5-5-5--5-5-5--5-5-5--5-5-5--5-5-5--5-5-5-|
Ab|------------------------------------------------------|
Eb|------------------------------------------------------|
     x4    x4    x4
Gb|---------|---------|---------|
Db|---------|---------|---------|
Ab|---------|-5-5-5-5-|---------|
Eb|-5-5-5-5-|---------|-5-5-5-5-|

 (Chorus) x2    x2    x8    x8    x8    x8    x4    x4
Gb|---------|---------|---------|---------|---------|---------|---------|---------|
Db|---------|---------|---------|-2-2-2-2-|---------|-5-5-5-5-|---------|---------|
Ab|-3-3-3-3-|-5-5-5-5-|-3-3-3-3-|---------|-3-3-3-3-|---------|-5-5-5-5-|-3-3-3-3-|
Eb|---------|---------|---------|---------|---------|---------|---------|---------|

 (Verse 3)
Gb|------------------------------------------------------|
Db|-5-5--5-5-5--5-5-5--5-5-5--5-5-5--5-5-5--5-5-5--5-5-5-|
Ab|------------------------------------------------------|
Eb|------------------------------------------------------|

Gb|------------------------------------------------------|
Db|------------------------------------------------------|
Ab|-3-3--3-3-3--3-3-3--3-3-3--3-3-3--3-3-3--3-3-3--3-3-3-|
Eb|------------------------------------------------------|

Gb|------------------------------------------------------|
Db|-5-5--5-5-5--5-5-5--5-5-5--5-5-5--5-5-5--5-5-5--5-5-5-|
Ab|------------------------------------------------------|
Eb|------------------------------------------------------|

 (Outro)  x4    x4
Gb|---------|---------|
Db|---------|---------|
Ab|-5-5-5-5-|-3-3-3-3-|
Eb|---------|---------|

Gb|---------------------------------------------|
Db|-5-5--5-5-5--5-5-5--5-5-5--5-5-5--5-5-5--5-5-|
Ab|---------------------------------------------|
Eb|---------------------------------------------|

Almost there ...

Sign in to get your own page with links to favourite songs and more. You are just one click away...

Login with Facebook Login with Google