Log in

One click and you are in

Login with Facebook Login with Google

Why sign up and log in

Guitar Tabs Explorer
Plaything bass tabs for Chasing my demons

Bass tabs

-------------------------------------------------------------------------------
               Chasing My Demons - Plaything
-------------------------------------------------------------------------------
Tabbed by: MetallicaDMRTL

Tuning: standard BEADG

0:10
G|--------------|--------------|
D|--------------|--------------|
A|--------------|--------------|
E|----------3-2-|----------3-2-|
B|-0--0--0------|-0--0--0------|

G|-----------|-----------|----------------|
D|-----------|-----------|----------------|
A|-----------|-----------|----------------| x4
E|-------3-5-|-------5-7-|-------7-9--3-2-|
B|-0-0-0-----|-0-0-0-----|-0-0-0----------|

G|---------------|  |-------------------|
D|*--------------|  |------------------*|   these two in order
A|*--------------| x2 |------------------*| x1    4x times
E|---------------|  |---------------3-2-|
B|-5p3p0h3p0h3h5-|  |-5p3p0h3p0h3h5-----|

G|-------------------------------|
D|-------------------------------|
A|-------------------------------| x4
E|---------------------------3-2-|
B|-0--0--0--0--0--0--0--0--0-----|

G|-----------|---------------|
D|-----7-7h9-|-------------9-|
A|-----------|---------7h9---| x4
E|-----------|-5h7-7h9-------|
B|-0-0-------|---------------|

G|---------------|  |-------------------|
D|*--------------|  |------------------*|   these two in order
A|*--------------| x2 |------------------*| x1    4x times
E|---------------|  |---------------3-2-|
B|-5p3p0h3p0h3h5-|  |-5p3p0h3p0h3h5-----|

G|-------------------------------|
D|-------------------------------|
A|-------------------------------| x4
E|---------------------------3-2-|
B|-0--0--0--0--0--0--0--0--0-----|

G|-----------|---------------|
D|-----7-7h9-|-------------9-|    note: the 7th time the 2nd bar D9
A|-----------|---------7h9---| x8      is strummed twice
E|-----------|-5h7-7h9-------|
B|-0-0-------|---------------|

G|---------------|
D|---------------|
A|---------------| x9
E|---------------|
B|-(0)~~~~~~-0-0-|

G|---------------|
D|---------------|
A|-(3)~~~~~~-3-3-|
E|---------------|
B|---------------|

G|------------|
D|-987--987-9-|
A|------------| x2
E|------------|
B|------------|

G|----------|
D|-987--987-|
A|----------|
E|----------|
B|----------|

G|-----------------|
D|-----------------|
A|-----------------| x14
E|-----------------|
B|-5p3p0h3p0h3h5-5-|

G|-------------------|
D|-------------------|
A|-------------------| x1
E|-------------------|
B|-5p3p0h3p0h3h5-5//-|

G|------------------|
D|------------------|
A|------------------| x1
E|------------------|
B|-15-15-15--17--17-|

G|-----------------|
D|-----------------|
A|-----------------| x8
E|-----------------|
B|-5p3p0h3p0h3h5-5-|

G|-----------|-----------|----------------|
D|-----------|-----------|----------------|
A|-----------|-----------|----------------| x4
E|-------3-5-|-------5-7-|-------7-9--3-2-|
B|-0-0-0-----|-0-0-0-----|-0-0-0----------|

G|-----|
D|-----|
A|-----| x8
E|-----|
B|-0-0-|

Well if anyone sees this i doubt they will know the band but local detroit band, there
fucking awesome check em out!!!!!!!

Heres the link to see the guys there hardcore motherfuckers one of my favorite bands!:::

http://www.facebook.com/#!/PLAYTHINGmusic


MetallicaDMRTL

Almost there ...

Sign in to get your own page with links to favourite songs and more. You are just one click away...

Login with Facebook Login with Google