Log in

One click and you are in

Login with Facebook Login with Google

Why sign up and log in

Guitar Tabs Explorer
Playjerise tabs for Way back home

Guitar tabs with lyrics

Capo 2nd fret

h = hammer on
p = pull off
Intro (x2)
e|----------------------------------------------------|
b|----------------------------------------------------|
g|---0---0h2---2p0---0---2h4p2-0----------------------|
d|-----0-----0---------0------------------------------|
a|----------------------------------------------------|
e|-3---------------3----30----------------------------|

e|----------------------------------------------------|
b|-------3---------------3-------0--------------------|
g|---0-----2p0-2p0---0-----2p0-2----------------------|
d|-----0---------------0------------------------------|
a|-3---------------3----------------------------------|
e|----------------------------------------------------|


Verse 1 (continue playing intro x 3)

If I said you mean nothing to me
What if I lost you?
If I said you mean nothing to me
And the world didn’t love you
And you had something on your mind
And I didn’t even try


Chorus 1

Would you find your way back home?
Would you find your way back home?
Would you find your way back home?

e|----------------------------------------------------|
b|-----3-----3----------------------------------------|
g|---0-----0-------0h2---2p0---0---0h2---2p0----------|
d|-2-----0-------------0---------0-----0--------------|
a|----------------------------------------------------|
e|-------------3-------------3------------------------|

e|----------------------------------------------------|
b|-----3-----3----3-----3-----3-----------------------|
g|---0-----0----0---0-----0-----0---0-----------------|
d|-2-----0-------0----0-----0-----0-------------------|
a|-------------3--------------------------------------|
e|----------------------------------------------------|

e|----------------------------------------------------|
b|-----3-----3----------------------------------------|
g|---0-----0-------0h2---2p0---0---2h4p2-0------------|
d|-2-----0-------------0---------0--------------------|
a|----------------------------------------------------|
e|-------------3-------------3----30------------------|

e|----------------------------------------------------|
b|-------3---------------3-------0--------------------|
g|---0-----2p0-2p0---0-----2p0-2----------------------|
d|-----0---------------0------------------------------|
a|-3---------------3----------------------------------|
e|----------------------------------------------------|



Verse 2 (repeat intro x 2 prior to lyrics, play intro x 2 with lyrics)

And I know it’s not easy to know what’s right
Cause I know I’d miss you if I made you leave my sight tonight


Verse 2 cont.

So if you have something on your mind
Then let me at least try

e|---------------------3------------------------------|
b|-------------------3---3----------------------------|
g|---0---0h2---2p0------------------------------------|
d|-----0-----0----------------------------------------|
a|----------------------------------------------------|
e|-3---------------0----------------------------------|

e|---3------------------------------------------------|
b|-------3-------------3------------------------------|
g|-----------2p0-----0--------------------------------|
d|----------------------------------------------------|
a|-3-3-------------3----------------------------------|
e|----------------------------------------------------|


Chorus 2

Help you find your way back home
Help you find your way back home

e|----------------------------------------------------|
b|-----3-----3----------------------------------------|
g|---0-----0-------0h2---2p0---0---0h2---2p0----------|
d|-2-----0-------------0---------0-----0--------------|
a|----------------------------------------------------|
e|-------------3-------------3------------------------|

e|----------------------------------------------------|
b|-----3-----3----3-----3-----3-----------------------|
g|---0-----0----0---0-----0-----0---0-----------------|
d|-2-----0-------0----0-----0-----0-------------------|
a|-------------3--------------------------------------|
e|----------------------------------------------------|

Would you find your way back home?
Would you find your way back home?

e|----------------------------------------------------|
b|-----3-----3----------------------------------------|
g|---0-----0-------0h2---2p0---0---0h2---2p0----------|
d|-2-----0-------------0---------0-----0--------------|
a|----------------------------------------------------|
e|-------------3-------------3------------------------|

e|----------------------------------------------------|
b|-----3-----3----3-----3-----3-----------------------|
g|---0-----0----0---0-----0---------------------------|
d|-2-----0-------0----0-----0-------------------------|
a|-------------3--------------------------------------|
e|----------------------------------------------------|


Bridge

From the moment I could talk
I never said enough
And I told everything I know
But I know it’s not enough
And no one can change your mind
So I know I gotta hope

e|-------3-----------3-----------3-----------3--------|
b|-------0--------------------------------------------|
g|---0-----------0-----------0-----------0------------|
d|-----0-----------0-----------0-------0---0----------|
a|-------------3--------------------------------------|
e|-0-----------------------3--------------------------|

e|-------3-----------3-----------3-----------3--------|
b|-------0--------------------------------------------|
g|---0-----------0-----------0-----------0------------|
d|-----0-----------0-----------0-------0---0----------|
a|-------------3--------------------------------------|
e|-0-----------------------3--------------------------|

e|-------3-----------3-----------3-----------3-----3--|
b|-------0--------------------------------------------|
g|---0-----------0-----------0-----------0-----0------|
d|-----0-----------0-----------0-------0---0-----0----|
a|-------------3--------------------------------------|
e|-0-----------------------3--------------------------|


Final Chorus

That you find your way back home
Would you find your way back home?
Would you find your way back home?
Would you find your way back home?


e|----------------------------------------------------|
b|-----3-----3----------------------------------------|
g|---0-----0-------0h2---2p0---0---0h2---2p0----------|
d|-2-----0-------------0---------0-----0--------------|
a|----------------------------------------------------|
e|-------------3-------------3------------------------|

e|----------------------------------------------------|
b|-----3-----3----3-----3-----3-----------------------|
g|---0-----0----0---0-----0-----0---0-----------------|
d|-2-----0-------0----0-----0-----0-------------------|
a|-------------3--------------------------------------|
e|----------------------------------------------------|

e|----------------------------------------------------|
b|-----3-----3----------------------------------------|
g|---0-----0-------0h2---2p0---0---0h2---2p0----------|
d|-2-----0-------------0---------0-----0--------------|
a|----------------------------------------------------|
e|-------------3-------------3------------------------|

e|----------------------------------------------------|
b|-----3-----3----3-----3-----3-----------------------|
g|---0-----0----0---0-----0-----0---0-----------------|
d|-2-----0-------0----0-----0-----0-------------------|
a|-------------3--------------------------------------|
e|----------------------------------------------------|

Final Chorus (cont.)/Ending

Would you find your way back home?

e|---------------3------------------------------------|
b|-----3-----3---3------------------------------------|
g|---0-----0-----0------------------------------------|
d|-2-----0-------0------------------------------------|
a|---------------2------------------------------------|
e|---------------3------------------------------------|

Almost there ...

Sign in to get your own page with links to favourite songs and more. You are just one click away...

Login with Facebook Login with Google