Log in

One click and you are in

Login with Facebook Login with Google

Why sign up and log in

Guitar Tabs Explorer
The Platters bass tabs for Twilight time

Bass tabs

Intro:
G|--------------|
D|--------------|
A|------------7-|
E|--------------|

Verse 1:: "Heavenly shades of night are falling..."
G|------------------------------------------------------------------------|
D|-7---------------4---4-------7--7--------------7---4--------------------|
A|-----7---4---4-----------7----------5---5--5---------------9---7--7--7--|
E|-------------------------------------------------------7----------------|


Verse 2:: "Deepening shadows gather splendor..."
G|-----------------------------------------------------------------------|
D|-7---------------4---4-------7--7-----------7---4-----------7-------7--|
A|-----7---4---4-----------7----------5---5---------------7-------5------|
E|----------------------------------------------------7------------------|


Bridge:: "Here, in the afterglow of day..."
G|-6--4-----------------6--------6------------------------------------------------------------------|
D|-------6--3-----3--6-----4--6--------4-----4--4--9--7-----------------9---------------------------|
A|-------------3--------------------4-----4--------------9--6-----6--9-----7-----7--7--7--------7-7-|
E|-------------------------------------------------------------7--------------7-----------8--7------|


Verse 2:: "Deep in the dark your kiss will thrill me..."
G|-----------------------------------------------------------------------|
D|-7---------------4---4-------7--7-----------7---4-----------7-------7--|
A|-----7---4---4-----------7----------5---5---------------7-------5------|
E|----------------------------------------------------7------------------|


Bridge:: "Here, in the afterglow of day..."
G|-6--4-----------------6--------6------------------------------------------------------------------|
D|-------6--3-----3--6-----4--6--------4-----4--4--9--7-----------------9---------------------------|
A|-------------3--------------------4-----4--------------9--6-----6--9-----7-----7--7--7--------7-7-|
E|-------------------------------------------------------------7--------------7-----------8--7-------|


Verse 2:: "Deep in the dark your kiss will thrill me..."
G|-------------------------------------------------------------------------------------|
D|-7---------------4---4-------7--7-----------7---4-----------7---4------------------5-|
A|-----7---4---4-----------7----------5---5---------------7------------------5---------|

Almost there ...

Sign in to get your own page with links to favourite songs and more. You are just one click away...

Login with Facebook Login with Google