Log in

One click and you are in

Login with Facebook Login with Google

Why sign up and log in

Guitar Tabs Explorer
Platinum Head tabs for Insated

Guitar tabs with lyrics

INSATED
As recorded by Platinum Head


Transcribed by Helbard AlkhassAdeh

 Words and Music by Platinum Head
Arranged by Platinum Head
Gtr I (E A D G B E) - Standard Tuning


 4/4
  Gtr I
	Intro/main riff
|-------------------------|
|-------------------------|
|-7-7-7-7-7-7-7-7-7-5-5-5-|
|-7-7-7-7-7-7-7-7-7-5-5-5-|
|-5-5-5-5-5-5-5-5-5-3-3-3-|
|-------------------------|


	Chorus
|---------------------------|
|---------------------------|
|-2-----2-2-------2-2-------|
|-2-----2-2-------2-2-----5-|
|---3b4-----3b3.5-----3b4-5-|
|-------------------------3-|


	Bridge
          PM|        PM|             PM      ~
|----------------------------------------------|
|----------------------------------------------|
|-/7S12S7-7-7-7S12S5-7-7-/7S12S7S9S7-7-/7S12S5-|
|----------------------------------------------|
|----------------------------------------------|
|----------------------------------------------|

	Second Verse
|---------------------------------------------|
|---------------------------------------------|
|-7-7-7-7-7-7-------------7-7-7-5-5-5---------|
|-7-7-7-7-7-7---------<5>-7-7-7-5-5-5-<5>-<7>-|
|-5-5-5-5-5-5-<5>-<7>-----5-5-5-3-3-3---------|
|---------------------------------------------|


	Interlude
|-----------------------|
|-----------------------|
|-7h9p7-7h9p7-7h9p7-7---|
|-7-----7-----7-----7-9-|
|-----------------------|
|-----------------------|



--------------------------------------------------------------------------------


Tablature 🏷Legend
----------------
 h   - hammer-on
 p   - pull-off
 b   - bend
 pb  - pre-bend
 r   - bend release (if no number after the r, then
release immediately)
 /\  - slide into or out of (from/to "nowhere")
 s   - legato slide
 S   - shift slide
<n> - natural harmonic
[n]  - artificial harmonic
n(n) - tapped harmonic
 ~   - vibrato
 tr  - trill
 T   - tap
 TP  - trem. picking
 PM  - palm muting
\n/  - tremolo bar dip; n = amount to dip
 \n  - tremolo bar down
 n/  - tremolo bar up
/n\  - tremolo bar inverted dip
 =   - hold bend; also acts as connecting device for
hammers/pulls
 <> - volume swell (louder/softer)
 x   - on rhythm slash represents muted slash
 o   - on rhythm slash represents single note slash

Misc 🏷Legend
-----------
 |  - bar
||  - double bar
||o - repeat start
o|| - repeat end
*|  - double bar (ending)
 :  - bar (freetime)
 $  - Segno
 &  - Coda
Tempo markers - <E/E./Q/Q./H/H.> = BPM(8/16=s8/s16),
where s8 = swing 8ths, s16 = swing 16ths




__________________________________

Almost there ...

Sign in to get your own page with links to favourite songs and more. You are just one click away...

Login with Facebook Login with Google