Log in

One click and you are in

Login with Facebook Login with Google

Why sign up and log in

Guitar Tabs Explorer
Robert Plant tabs for Memory song

Guitar tabs

Robert Plant - 'Memory Song - Hello Hello'

Figure 1:
E-|--------------------------------------------------------------|
B-|--------------------------------------------------------------|
G-|----10-----9----7----6-----4---------10----9----7----6----4---|
D-|--0------0----0----0----0----------0-----0----0----0----0-----|
A-|--------------------------------------------------------------|
D-|-(0)------------------------------(0)-------------------------|

Figure 2:
E-|-----------------------------------------------|
B-|---------------------(5)-----------------------|
G-|----------------------6---------------------6--|
D-|--7-----9--9p7-7-7-9--7-------9--9p7-7-7-9--7--|
A-|--0-------------------0---------------------0--|
D-|-----------------------------------------------|

Figure 3:
E-|----------------|
B-|--8p7p5---5-----|
G-|--------7-6-----|
D-|----------7-----|
A-|---------(0)----|
D-|----------------|

Figure 4:
E-|---------------------------------------------------------------------|
B-|--2-2-2--3----s5-5-5--7---s10--8----2-2-2--3----s5-5-5--7---s14--12--|
G-|--2-2-2--4----s6-6-6--7---s9---7----2-2-2--4----s6-6-6--7---s14--12--|
D-|--2-2-2--5----s7-7-7--7---s7---5----2-2-2--5----s7-7-7--7---s14--12--|
A-|---------------------------------------------------------------------|
D-|---------------------------------------------------------------------|

Figure 5:
E-|--------------------------------------------------|
B-|--------------------------------------------------|
G-|-x--x--7vvv-6-------------xx7vvv-6----------------| Play 2 times
D-|--------------xx5--5h7vvv----------xx5--5h7vvv----|  (I think)
A-|--------------------------------------------------|
D-|--------------------------------------------------|

E-|--------------------------------------------------|
B-|-x--x--7vvv-5------------xx7vvv-6-----------------|
G-|--------------xx6-6h7vvv----------xx6-6h7vvv------| Play this a
D-|--------------------------------------------------|  few times
A-|--------------------------------------------------|    too
D-|--------------------------------------------------|


Okay, now some explanation.
Figures 1-3 are repeated over and over through
the song.  I don't remember exactly how and
I don't have the patience to go through and
write out the exact number of times for each.
Figure 4 is the little semi-accousting strumming
run that appears every once in a while.
Figure 5 is my favorite part of the song.
It is one of the leads that gets played very
majestically.

Matthew M Holladay <holladay@engin.umich.edu>
------------------

Almost there ...

Sign in to get your own page with links to favourite songs and more. You are just one click away...

Login with Facebook Login with Google