Log in

One click and you are in

Login with Facebook Login with Google

Why sign up and log in

Guitar Tabs Explorer
Robert Plant bass tabs for Little by little

Bass tabs

Tuning: Standard (E A D G)

Key: Dm

Difficulty: Intermediate

Artist : Robert Plant
Album : Shaken 'n' Stirred
Song : Little by Little

Intro:

G|--------------------------------|--------------------------------|
D|--------------------------------|--------------------------------|
A|1---3---3-r-------------------3-|3---5---5-r-------------------1-| (x3)
E|--------------------------------|--------------------------------|
 1  +  2  +  3  +  4  +  1  +  2  +  3  +  4  +

G|--------------------------------|--------------------------------|
D|--------------------------------|----5---------------------------|
A|1---3---3-r-------------------3-|3-------5-r---------------------|
E|--------------------------------|--------------------------------|
 1  +  2  +  3  +  4  +  1  +  2  +  3  +  4  +

G|--------10-r----10h12-----------|--------------------------------|
D|-------------------------10-r---|10h12---------------------------|
A|--------------------------------|--------10-r---/12------8-r-----|-|
E|10-r----------------------------|--------------------------------| |
 1  +  2  +  3  +  4  +  1  +  2  +  3  +  4  +   |
                                   | (x2)
G|--------------------------------|--------------------------------| |
D|--------------------------------|--------------------------------|-|
A|10--------------8---------------|--------------------------------|
E|--------10-r------------8-r-----|10------3-r-----5-r-----1---/---|
 1  +  2  +  3  +  4  +  1  +  2  +  3  +  4  +

G|--------------------------------|--------------------------------|
D|--------------------------------|--------------------------------|
A|5-------------------------------|--------------x-2---2---2-------| (x3)
E|--------------------------------|--------------------------------|
 1  +  2  +  3  +  4  +  1  +  2  +  3  +  4  +

G|--------------------------------|
D|--------------------------------|
A|5-------------------------------|
E|--------------------------------|
 1  +  2  +  3  +  4  +


Verse 1:

G|--------10-r----10h12-----------|--------------------------------|
D|-------------------------10-r---|10h12---------------------------|
A|--------------------------------|--------10-r---/12------8-r-----|-|
E|10-r----------------------------|--------------------------------| |
 1  +  2  +  3  +  4  +  1  +  2  +  3  +  4  +   |
                                   | (x2)
G|--------------------------------|--------------------------------| |
D|--------------------------------|--------------------------------|-|
A|10--------------8---------------|--------------------------------|
E|--------10-r------------8-r-----|10------3-r-----5-r-----1---/---|
 1  +  2  +  3  +  4  +  1  +  2  +  3  +  4  +


Bridge:

G|--------------------------------|--------------------------------|
D|--------------------------------|--------------------------------|
A|5-------------------------------|--------------x-2---2---2-------| (x3)
E|--------------------------------|--------------------------------|
 1  +  2  +  3  +  4  +  1  +  2  +  3  +  4  +

G|--------------------------------|
D|--------------------------------|
A|5-------------------------------|
E|--------------------------------|
 1  +  2  +  3  +  4  +


Verse 2:

G|--------10-r----10h12-----------|--------------------------------|
D|-------------------------10-r---|10h12---------------------------|
A|--------------------------------|--------10-r---/12------8-r-----|-|
E|10-r----------------------------|--------------------------------| |
 1  +  2  +  3  +  4  +  1  +  2  +  3  +  4  +   |
                                   | (x2)
G|--------------------------------|--------------------------------| |
D|--------------------------------|--------------------------------|-|
A|10--------------8---------------|--------------------------------|
E|--------10-r------------8-r-----|10------3-r-----5-r-----1---/---|
 1  +  2  +  3  +  4  +  1  +  2  +  3  +  4  +


Chorus:

G|----------------|----------------|----------------|----------------|
D|----------------|----------------|----------------|----------------|
A|5---------------|----------------|5---------------|------------3-5-|
E|----------------|3---------------|----------------|3---------------|
 1 + 2 + 3 + 4 + 1 + 2 + 3 + 4 + 1 + 2 + 3 + 4 + 1 + 2 + 3 + 4 +

G|----------------|----------------|----------------|----------------|
D|----------------|----------------|----------------|----------------|
A|----------------|----------------|----------------|------------3-5-|
E|------------5-3-|------------3-1-|-------x1-r-----|-------x1-r-----|
 1 + 2 + 3 + 4 + 1 + 2 + 3 + 4 + 1 + 2 + 3 + 4 + 1 + 2 + 3 + 4 +

G|----------------|----------------|----------------|----------------|
D|----------------|----------------|----------------|----------------|
A|----------------|----------------|----------------|----------------|
E|------------5-3-|------------3-1-|----------------|3---------------|
 1 + 2 + 3 + 4 + 1 + 2 + 3 + 4 + 1 + 2 + 3 + 4 + 1 + 2 + 3 + 4 +

G|--------------------------------|--------------------------------|
D|--------------------------------|--------------------------------|
A|1---3---3-r-------------------3-|3---5---5-r-------------------1-|
E|--------------------------------|--------------------------------|
 1  +  2  +  3  +  4  +  1  +  2  +  3  +  4  +

G|--------------------------------|--------|
D|--------------------5-----------|--------|
A|1---3---3-r---3-3-------5-r-----|--------|
E|--------------------------------|--------|
 1  +  2  +  3  +  4  +  1 + 2 +


Verse 3:

G|--------10-r----10h12-----------|--------------------------------|
D|-------------------------10-r---|10h12---------------------------|
A|--------------------------------|--------10-r---/12------8-r-----|-|
E|10-r----------------------------|--------------------------------| |
 1  +  2  +  3  +  4  +  1  +  2  +  3  +  4  +   |
                                   | (x2)
G|--------------------------------|--------------------------------| |
D|--------------------------------|--------------------------------|-|
A|10--------------8---------------|--------------------------------|
E|--------10-r------------8-r-----|10------3-r-----5-------1---/---|
 1  +  2  +  3  +  4  +  1  +  2  +  3  +  4  +

G|--------------------------------|--------|
D|--------------------------------|--------|
A|5-------------------------------|--------|
E|--------------------------------|--------|
 1  +  2  +  3  +  4  +  1 + 2 +

G|--------10-r----10h12-----------|--------------------------------|
D|-------------------------10-r---|10h12---------------------------|
A|--------------------------------|--------10-r---/12------8-r-----|-|
E|10-r----------------------------|--------------------------------| |
 1  +  2  +  3  +  4  +  1  +  2  +  3  +  4  +   |
                                   | (x2)
G|--------------------------------|--------------------------------| |
D|--------------------------------|--------------------------------|-|
A|10--------------8---------------|--------------------------------|
E|--------10-r------------8-r-----|10------3-r-----5-------1---/---|
 1  +  2  +  3  +  4  +  1  +  2  +  3  +  4  +


Bridge:

G|--------------------------------|--------------------------------|
D|--------------------------------|--------------------------------|
A|5-------------------------------|--------------x-2---2---2-------| (x3)
E|--------------------------------|--------------------------------|
 1  +  2  +  3  +  4  +  1  +  2  +  3  +  4  +

G|--------------------------------|--------------------------------|
D|--------------------------------|--------------------------------|
A|5-------------------------------|--------------x-2---2---3---5---|
E|--------------------------------|--------------------------------|
 1  +  2  +  3  +  4  +  1  +  2  +  3  +  4  +


Chorus:

G|----------------|----------------|----------------|----------------|
D|----------------|----------------|----------------|----------------|
A|----------------|----------------|----------------|------------3-5-|
E|------------5-3-|------------3-1-|-------x1-r-----|-------x1-r-----|
 1 + 2 + 3 + 4 + 1 + 2 + 3 + 4 + 1 + 2 + 3 + 4 + 1 + 2 + 3 + 4 +

G|----------------|----------------|----------------|----------------|
D|----------------|----------------|----------------|----------------|
A|----------------|----------------|----------------|------------3-5-| (x2)
E|------------5-3-|------------3-1-|-------x1-r---3-|----------------|
 1 + 2 + 3 + 4 + 1 + 2 + 3 + 4 + 1 + 2 + 3 + 4 + 1 + 2 + 3 + 4 +

G|----------------|----------------|----------------|----------------|
D|----------------|----------------|----------------|----------------|
A|----------------|----------------|----------------|----------------|
E|------------5-3-|------------3-1-|-------x1-r-----|3---------------|
 1 + 2 + 3 + 4 + 1 + 2 + 3 + 4 + 1 + 2 + 3 + 4 + 1 + 2 + 3 + 4 +


Outro:

G|--------------------------------|
D|--------------------------------|
A|3h5-r---------x-3h5-----------x-| until fade out
E|--------------------------------|
 1  +  2  +  3  +  4  +


************************************

| x  Dead note
| h  Hammer-on
| r  Release
| /  Slide up

************************************

Almost there ...

Sign in to get your own page with links to favourite songs and more. You are just one click away...

Login with Facebook Login with Google