Log in

One click and you are in

Login with Facebook Login with Google

Why sign up and log in

Guitar Tabs Explorer
Robert Plant tabs for Burning down one side

Guitar tabs

Track:  Burning Down One Side
Album:  Pictures at Eleven
Transcriber: J Marlough


   Intro
   3x
A chord diagramE MajorE||------7-7h8p7h8p7-----|------5---------||
A chord diagramBB||----8-------------8---|----6-----------||
A chord diagramG+G||--7-----------------7-|--5-------------||
A chord diagramD MajorD||9--------------------/|7--------------/||
A chord diagramA augmentedA||----------------------|----------------||
A chord diagramE MajorE||----------------------|----------------||
   1 . 2 . 3       . 4 .  1 . 2 . 3 . 4 .
|------7-7h8p7h8p7-----|7-7-7-7-7-------|
|----8-------------8---|8-8-8-8-8-------|
|--7-----------------7-|7-7-7-7-7-------|
|9--------------------/|9-9-9-9-9-------|
|----------------------|----------------|
|----------------------|----------------|
 1 . 2 . 3       . 4 .  1 . 2 . 3 . 4 .


  Verse - repeat 2x
  3x
||----------------|----------------||----------------|----------------|
||8-------8-------|--8-------8---88||8-------8-------|--8-------8-----|
||7---5/7-7-------|--7---5---7---77||7---5/7-7-------|--7---5---7-----|
||5---3/5-5-------|--5---3---5---55||5---3/5-5-------|--5---3---5-----|
||----------------|----------------||----------------|----------------|
||----------------|----------------||----------------|----------------|
  1 . 2 . 3 . 4    1 . 2 . 3 . 4 .   1 . 2 . 3 . 4    1 . 2 . 3 . 4 .

                     Slipped through...


  Break
  3x
||------7-7h8p7h8p7-----|------5---------||
||----8-------------8---|----6-----------||
||--7-----------------7-|--5-------------||
||9--------------------/|7--------------/||
||----------------------|----------------||
||----------------------|----------------||
  1 . 2 . 3       . 4 .  1 . 2 . 3 . 4 .

 ...yes my poor heart...


                    2x
|----------------||----------------||----------------|
|7-----5---------||--7-x-5---------||--7-x-5---------|
|7-----5---------||--7-x-5---------||--7-x-5---------|
|7-----5---------||--7-x-5---------||--7-x-5-------3/|
|5-----3-------3/||5-5-x-3-------3/||5-5-x-3---------|
|----------------||----------------||----------------|
 1 . 2 . 3 . 4 .   1 . 2 . 3 . 4 .   1 . 2 . 3 . 4 .

 Try as I might...


  4x
||----------------||
||--8-x-6---------||
||--7-x-5---------||
||5-5-x-3---------||
||----------------||
||----------------||
  1 . 2 . 3 . 4 .

  Cause I need...


  3x
||----------------|----------------||----------------|----------------|
||--6-------6-----|----------------||--6-------6-----|----------------|
||--5-5/7-7-5-5/7-|7---------------||--5-5/7-7-5-5/7-|7-------7-------|
||----3/5-5---3/5-|5---------------||----3/5-5---3/5-|5-------5-------|
||----------------|----------------||----------------|----------------|
||----------------|----------------||----------------|----------------|
  1 . 2 . 3 . 4 .  1 . 2 . 3 . 4 .   1 . 2 . 3 . 4 .  1 . 2 . 3 . 4 .

                       I'm looking high...

                                    3x
|----------------|----------------||----------------||
|----------------|7-----5---------||--7-x-5---------||
|7-7-7-7-7-------|7-----5---------||--7-x-5---------||
|5-5-5-5-5-------|7-----5---------||--7-x-5---------||
|----------------|5-----3-------3/||5-5-x-3-------3/||
|----------------|----------------||----------------||
 1 . 2 . 3 . 4 .  1 . 2 . 3 . 4 .   1 . 2 . 3 . 4 .


  Guitar under Solo
  2x
||----------------|----------------|------3---------|----------------||
||------7---------|------3---------|----3---3-------|----------------||
||----7-----------|----3-----3-----|--3-------3-----|----------------||
||--7-------------|--3---------3--/|5-----------5---|----------------||
||5---------------|1---------------|----------------|----------------||
||----------------|----------------|----------------|----------------||
  1 . 2 . 3 . 4    1 . 2 . 3 . 4 .  1 . 2 . 3 . 4 .  1 . 2 . 3 . 4 .


|----------------|
|7-7-------------|
|7-7-------------|
|7-7-------------|
|5-5-------------|
|----------------|
 1 . 2 . 3 . 4 .


 Solo
|-----------------------------------------------------------------|
|-------------------------------------------------------------4-3v|
|5b7rrrrrr5------3v----------------3v--5p3-5-6-5p3----------------|
|---------------------------5-----------------------------3-5-----|
|-----------------------------------------------------3-5---------|
|---------------------------------------------------6-------------|
    ^
    slow release

Questions, Comments, Corrections:
jmarlough@yahoo.com
ⓘ Guitar tab for 'Burning Down One Side' by Robert Plant, Robert Plant & Alison Krauss, a male hard rock artist from West Bromwich, England, UK. Robert Plant was born in 1948. Robert Plant is known for his epic rock/pop music.

Almost there ...

Sign in to get your own page with links to favourite songs and more. You are just one click away...

Login with Facebook Login with Google