Log in

One click and you are in

Login with Facebook Login with Google

Why sign up and log in

Guitar Tabs Explorer
Robert Plant bass tabs for Big log

Bass tabs

  • Tuning: Standard tuning
  • Difficulty: Intermediate
-----------------------------------------------------------------------------
                     Artist - Robert Plant
                     ***********************
                      Song - Big Log
                      ****************
                  Album - The Principle Of Moments
                  **********************************
                     Tabbed By - Ayreon77
                     **********************
-----------------------------------------------------------------------------

Tuning = Standard

               I Tabbed This Off This Video
           https://www.youtube.com/watch v=s1nIUAEseOA
INTRO
******
G|-----------|-----------|--------|
D|-------0---|-------0---|-----0--|
A|---0-3---0-|---0-3---0-|---03-0-|
E|-1---------|-1---------|-1------|

00:15
G|-----|-----------|------------|-----------|--------------|------------|--------------|
D|-----|----h------|-----h------|----h------|-------h------|------------|--------------|
A|---s-|---5-7-----|----5-7-----|---3-5-----|-5----3-5-----|---5----5-5-|---5--3-0-5-5-|
E|-17\-|-5-----5-5-|-5------5-5-|-3-----3-3-|---3------3-3-|-3----5-----|-5------------|


G|-----|-------|-----|-------|-----------|-----------|------------|----------------|
D|-----|-------|-----|-------|-----2-----|-----2-----|------------|----------------|
A|-0---|-3-----|-3---|-3-----|-----------|-----------|---5----5-5-|---5--5-7-5-3-0-|
E|---1-|---1-1-|---1-|---1-1-|-1-0---0-0-|-0-0---0-0-|-0----5-----|-5--------------|

00:48
G|-------------|-------------|-------------|
D|-------------|-------------|-------------|
A|----s--3-5---|----s--3-5---|----s--3-5---|
E|-1-3\5-----5-|-1-3\5-----5-|-1-3\5-----5-|

--------------------------------
00:56

VERSE 1
********
G|---------------|------------|------------|-------------------|---------------|
D|---------------|------------|------------|--------h--0-------|----h--0-------|
A|---------------|---5----5-5-|---5----5-5-|-0-----0-2---0-0---|---0-2---0-0---|
E|-5-5--0-5--5-5-|-5----5-----|-5----5-----|---3-3-----------3-|-3-----------3-|


G|-------------|-------------|
D|-------------|-------------|
A|-0--0--------|----s--3-5---|
E|------1--1-3-|-1-3\5-----5-|


--------------------------------

VERSE 2
********
G|---------------|------------|------------|-----------------|--------|--------|
D|---------------|------------|------------|---------0-------|--------|--------|
A|---------------|---5----5-5-|---5----5-5-|-0-----2---0-0---|------3-|------3-|
E|-5-5--0-5--5-5-|-5----5-----|-5----5-----|---3-3---------3-|-1--1---|-1--1---|


--------------------------------

BRIDGE
*******
G|-----------------|-----------------|-----------------|--------|
D|-1-1-1-1-1-1-1-1-|-----------------|-----------------|--------|
A|-----------------|-4-4-4-4-4-4-4-4-|-3-3-3-3-3-3-3-3-|--------|
E|-----------------|-----------------|-----------------|-1--1-1-|


G|-------------------|-----------------|-----------------|------------|
D|---1-1-1-1-1-1-1-1-|-----------------|-----------------|------------|
A|-3-----------------|-4-4-4-4-4-4-4-4-|-3-3-3-3-3-3-3-3-|------0-----|
E|-------------------|-----------------|-----------------|-1--1---3-1-|


G|-------------|------------|--------------|---7-7-----|-------2-----|-----------|---------|
D|-------------|------------|------0-3-7-5-|-5-----5-3-|---0-3---3-5-|---5-------|-----0---|
A|-3--3-3------|------0-----|-3--0---------|-----------|-3-----------|-5---5-----|---3---0-|
E|---------3-3-|-1--1---3-1-|--------------|-----------|-------------|-------3-1-|-1-------|


--------------------------------

BREAK - GUITAR
******
02:20
G|-----------|------------|-----------|--------------|------------|---|
D|----h------|-----h------|----h------|-------h------|------------|---|
A|---5-7-----|----5-7-----|---3-5-----|-5----3-5-----|---5----5-5-|---|
E|-5-----5-5-|-5------5-5-|-3-----3-3-|---3------3-3-|-3----5-----|-1-|


G|-------------|-------------|-------------|
D|-------------|-------------|-------------|
A|----s--3-5---|----s--3-5---|----s--3-5---|
E|-1-3\5-----5-|-1-3\5-----5-|-1-3\5-----5-|


--------------------------------
02:42

VERSE 3
********
G|---------------|------------|------------|-------------------|---------------|
D|---------------|------------|------------|--------h--0-------|----h--0-------|
A|---------------|---5----5-5-|---5----5-5-|-0-----0-2---0-0---|---0-2---0-0---|
E|-5-5--0-5--5-5-|-5----5-----|-5----5-----|---3-3-----------3-|-3-----------3-|


G|-------------|-------------|
D|-------------|-------------|
A|-0--0--------|----s--3-5---|
E|------1--1-3-|-1-3\5-----5-|


--------------------------------

VERSE 4
********
G|---------------|------------|------------|-------------------|-------------------|
D|---------------|------------|------------|--------h--0-------|---------------0---|
A|---------------|---5----5-5-|---5----5-5-|-0-----0-2---0-0---|---0-0-2---0-3---0-|
E|-5-5--0-5--5-5-|-5----5-----|-5----5-----|---3-3-----------3-|-3-------1---------|


G|-------------|-------------|--------|
D|-------------|-------------|-----0--|
A|----s--3-5---|----s--3-5---|---03-0-|
E|-1-3\5-----5-|-1-3\5-----5-|-1------|


--------------------------------
03:29

BREAK
******
G|-----|-----------|------------|-------------|--------------|------------|------------------|
D|-----|----h------|-----h------|------h------|-------h------|------------|-------p------2-3-|
A|---s-|---5-7-----|----5-7-----|-----3-5-----|-5----3-5-----|---5----5-5-|---5--3-0-5-5-----|
E|-17\-|-5-----5-5-|-5------5-5-|-5-3-----3-3-|---3------3-3-|-3----5-----|-5----------------|


G|---|-------|-----|-------|-------------------|---------|-------------------------|
D|---|-------|-----|-------|-------------------|---------|-------------------------|
A|---|-3-----|-3---|-3-----|---------0-2-3-2-0-|-5---5-5-|---5---5--5-3------------|
E|-1-|---1-1-|---1-|---1-1-|-1-0-2-3-----------|---5-----|-5------------3-5--------|


G|-------------|-------------|-------------|
D|-------------|-------------|-------------|
A|----s--3-5---|----s--3-5---|----s--3-5---|
E|-1-3\5-----5-|-1-3\5-----5-|-1-3\5-----5-|


--------------------------------
04:10

VERSE 5
********
G|-----------------------------------|---------0-|-------------|---------------|
D|-----------------------0---0-0---0-|-0-2-2-3---|-------------|---------------|
A|---------------0-0-2-3---0-----0---|-----------|-----2-0-0---|-2-0---0-3-5---|
E|-5-5-5--0-5--5---------------------|-----------|-3-3-------3-|-----1-------5-|

04:26
G|------------|-----------|------------|-------|--------------|---------------|
D|------------|-----------|------------|-2-2-3-|--------------|---------------|
A|------------|-0-2-2-3-5-|---5-5----5-|-------|-----2--0-0---|-2-0---0-3-5---|
E|-0-5-5--0-5-|-----------|-5------5---|-------|-3-3--------3-|-----1-------5-|


--------------------------------
04:45

OUTRO
******
G|-----------|------------|-------|--------------|---------------|-----------|------------|
D|-----------|------------|-2-2-3-|--------------|---------------|-----------|------------|
A|-0-0-3-4-5-|---5-5----5-|-------|-----2--0-0---|-2-0---0-3-5---|-0-0-3-4-5-|---5-5----5-|
E|-----------|-5------5---|-------|-3-3--------3-|-----1-------5-|-----------|-5------5---|


ENJOY..............

Big Log bass tab

Robert Plant bass tabs for Big log "Big Log" is a song off of legendary Led Zeppelin singer Robert PlantĀ“s second studio album, "The Principles of Moments". "Big Log" and the album was released in 1983.

Almost there ...

Sign in to get your own page with links to favourite songs and more. You are just one click away...

Login with Facebook Login with Google