Log in

One click and you are in

Login with Facebook Login with Google

Why sign up and log in

Guitar Tabs Explorer
Planetshakers tabs for Glory

Guitar tabs

Planetshakers : Glory Tab with Chords

Tuning: Standard (E, A, D, G, B, A chord diagramE MajorE)


Intro:

Guitar 1
|------------------|
|------------------|
|-/11~-------------|
|------------------|
|------------------|
|------------------|

|-------------------------------------------------------------------------|
|-------------------------------------------------------------------------|
|-11-11-11-11-11-11-11-11-10-10-10-10-10-10-10-10-11-11-11-11-11-11-11-11-|2x
|-11-11-11-11-11-11-11-11-11-11-11-11-11-11-11-11-9--9--9--9--9--9--9--9--|
|-------------------------------------------------------------------------|
|-------------------------------------------------------------------------|


Verse:
|------------------|
|-----------///7---|
|-----------///6---|
|------------- = --|
|------------------|
|------------------|


Refrain 1
  PM--------------------------------------------------------------|
|-------------------------------------------------------------------|
|-------------------------------------------------------------------|
|----------8-8-8-10-10--11-11-11-10-10-10-----------------------8-8-|
|-11-11-11--------------------------------11-11--9-9-9-11-11-11-----|
|-------------------------------------------------------------------|
|-------------------------------------------------------------------|

|----------------------|
|-11-11-11-9-9-9-------|
|----------------11-11-|
|----------------------|
|----------------------|
|----------------------|

                                          PM----------------------|
|-------------------------------------------------------------------|
|-------------------------------------------------------------------|
|----------8-8-8-10-10--11-11-11-10-10-10-----------------------8-8-|
|-11-11-11--------------------------------11-11--9-9-9-11-11-11-----|
|-------------------------------------------------------------------|
|-------------------------------------------------------------------|

|-------------------9~-|
|-11-11-11-12-12-12----|
|----------------------|
|----------------------|
|----------------------|
|----------------------|


Chorus
  A chord diagramF#F# A chord diagramBB  A chord diagramC#C#   A chord diagramEbmEbm    A chord diagramBB
|----------------------|
|----------------------|
|----4--6--x-88---x-44-|
|-4--4--6--x-88---x-44-|
|-4--2--4--x-66---x-22-|
|-2--------------------|

  A chord diagramBB               A chord diagramC#C#   A chord diagramEbmEbm
|--------------------------|
|--------------------------|
|-4---------------6-6--8-8-|
|-4--x-4-x-4-x-4--6-6--8-8-|
|-2--x-2-x-2-x-2--4-4--6-6-|
|--------------------------|

  A chord diagramF#F# A chord diagramBB  A chord diagramC#C#   A chord diagramEbmEbm    A chord diagramBB >>>>>>> F#, A chord diagramF#F# - A chord diagramBB - A chord diagramC#C# - Ebm, A chord diagramBB
|----------------------|
|----------------------|
|----4--6--x-88---x-44-|
|-4--4--6--x-88---x-44-|
|-4--2--4--x-66---x-22-|
|-2--------------------|

Repeat Verse,


Refrain 2
  PM--------------------------------------------------------------|
|-------------------------------------------------------------------|
|-------------------------------------------------------------------|
|----------8-8-8-10-10--11-11-11-10-10-10-----------------------8-8-|
|-11-11-11--------------------------------11-11--9-9-9-11-11-11-----|
|-------------------------------------------------------------------|
|-------------------------------------------------------------------|


|----------------------|
|-11-11-11-9-9-9-------|
|----------------11-11-|
|----------------------|
|----------------------|
|----------------------| Do it two times, then in third time Don't Palm Mute

then it is the fourth Time
|-------------------------------------------------------------------|
|---------------------------------------------------------------11~-|
|----------8-8-8-10-10--11-11-11-10-10-10-------11-11-11-11-11------|
|-11-11-11--------------------------------11-11---------------------|
|-------------------------------------------------------------------|
|-------------------------------------------------------------------|

Go to Chorus


Bridge > A chord diagramF#F# - A chord diagramEbmEbm - A chord diagramC#C# - A chord diagramBB
Repeat Refrain 2 up to Bridge

-------------------------------------

🏷Legends
 /\  -  Sliding
 ~   -  Vibrato
 =   -  Tremolo Picking
PM-| -  Palm mute
 x   -  Dead String/s

-------------------------------------

Thank you for using my tab , i hope u enjoy :) God Bless!
comment for any question, feedback or corrections
and please rate .

by: Kenn Aducal
http://www.facebook.com/kenn.ysrael.22

Other versions of Glory

Glory to godChords

Almost there ...

Sign in to get your own page with links to favourite songs and more. You are just one click away...

Login with Facebook Login with Google