Log in

One click and you are in

Login with Facebook Login with Google

Why sign up and log in

Guitar Tabs Explorer
Planetshakers bass tabs for Everythings changed

Everythings Changed bass tab - Planetshakers

Planetshakers bass tabs for Everythings changed

Bass tabs

h- hammer on
p- pull off
/- slide


intro
G|------------------------------------------------------|
D|-------------00-0-4h5p4-0--2-2-2-2-0------------------| x 4
A|-------0-2-3--------------------------3-3--3-2h3p2-0--|
E|-3-3-3------------------------------------------------|
Verse:
G|------------------------------------------------------|
D|------------------------------------------------------|
A|------------------2h33333333------------33333333------|
E|-3-3--------------------------3333-5555---------------|
   You ask me why......


Pre Chorus:
G|------------------------------------------------------|
D|------------------------------------------------------|
A|--7777/3333/7777/3333/7777/3333----5----5---5---------|
E|------------------------------------------------------|
               ..................felt so good


Chorus:
G|------------------------------------------------------|
D|------------------------------------------------------| x3
A|-------------3-3-3-333--7-7-7-777 -3-3-3-333----------|
E|--3-3-3-333-------------------------------------------|

G|------------------------------------------------------|
D|------------------------------------------------------|
A|----------------------- -3-3-3-333333-----------------|
E|--3-3-3-333--5-5-5-555--------------------------------|

Then verse and pre chorus and chorus is just the same

Half fun playing....sorry if its worng :P

Tabbed by Ben J

God Rocks

Almost there ...

Sign in to get your own page with links to favourite songs and more. You are just one click away...

Login with Facebook Login with Google