Log in

One click and you are in

Login with Facebook Login with Google

Why sign up and log in

Guitar Tabs Explorer
Planetshakers bass tabs for Everyone

Bass tabs

Intro
G|-----------------------------------------------------------------------|
D|--------------------------------------------------5555555--------------|
A|-----3~-------------3~--------------5-555--7777777---------------------|
E|------------------------------1-1-1------------------------------------|
G|-----------------------------------------------------------------------|
D|-----------------------------------------------------------------------|
A|0(14)-------------------0(14)------------------------------------------|
E|------1(14)---3(14)-----------333--------------------------------------|

G|-----------------------------------------------------------------------|
D|-----------------------------------------------------------------------|
A|0(14)-------------------0(14)---3(7)-----------------------------------|
E|------1(14)---3(14)------------------3(7)------------------------------|


Chorus
G|-----------------------------------------------------------------------|
D|-----------------------------------------------------------------------|
A|---0-0-----35----------35------------35---5535-------------------------|
E|-------35------11---35-------33---35----------33-----------------------|

G|-----------------------------------------------------------------------|
D|---------------------------------------------33------------------------|
A|---0-0-----35----------35------------35---55---------------------------|2x
E|-------35------11---35-------33--35------------------------------------|


Verse
G|-----------------------------------------------------------------------|
D|--------------------------------------------------5555555--------------|
A|--3-3-33------3-3-33---------------5-555---7777777---------------------|
E|-----------------------------1-1-1-------------------------------------|

Pre-Chorus
G|-----------------------------------------------------------------------|
D|-----------------------------------------------------------------------|
A|0(8)----------------0(8)--5-3-0-5-3-0----------------------------------|
E|-----1(8)----3(8)------------------------------------------------------|


G|-----------------------------------------------------------------------|
D|-----------------------------------------------------------------------|
A|0(14)-------------------0(14)---3(7)-----------------------------------|
E|------1(14)---3(14)------------------3(7)------------------------------|


Chorus
G|-----------------------------------------------------------------------|
D|-----------------------------------------------------------------------|
A|---0-0-----35----------35------------35---5535-------------------------|
E|-------35------11---35-------33---35----------33-----------------------|

G|-----------------------------------------------------------------------|
D|---------------------------------------------33------------------------|
A|---0-0-----35----------35------------35---55---------------------------|2x
E|-------35------11---35-------33--35------------------------------------|


Bridge
G|-----------------------------------------------------------------------|
D|-----------------------------------------------------------------------|
A|----0(14)--5(14)---7(14)--9(7)----12(7)--------------------------------|2x
E|-----------------------------------------------------------------------|

G|-----------------------------------------------------------------------|
D|-----------------------------------------------------------------------|
A|----0(14)--5(14)---7(14)--9(7)---6(4)--10(4)---------------------------|
E|-----------------------------------------------------------------------|


Chorus
G|-----------------------------------------------------------------------|
D|-----------------------------------------------------------------------|
A|---0-0-----35----------35------------35---5535-------------------------|
E|-------35------11---35-------33---35----------33-----------------------|

G|-----------------------------------------------------------------------|
D|---------------------------------------------33------------------------|
A|---0-0-----35----------35------------35---55---------------------------|
E|-------35------11---35-------33--35------------------------------------|

Almost there ...

Sign in to get your own page with links to favourite songs and more. You are just one click away...

Login with Facebook Login with Google