Log in

One click and you are in

Login with Facebook Login with Google

Why sign up and log in

Guitar Tabs Explorer
Planetshakers bass tabs for Come right now

Bass tabs

Slap & Pop in all verse's! God Bless and have fun bass bros..
Video Tutorial is here: https://www.youtube.com/watch v=woO7Q0CRMYk


[Verse]
G|-------------------------------8--------------------------------------------------------|
D|------------------------------------------1-3----------------6--------------------------|
A|---4-4-4--------4-4-4-----6-6-----------------------------------------------------------|
E|-----------------------------------1-1-1-------1-1-1----4-4-----------------------------|
B|-----------2-2--------------------------------------------------------------------------|

G|----------4-6------------------8--------------------------------------8-10-8------------|
D|-------------------------------------------------6-------------6-8-10---------10--------|
A|---4-4-4--------4-4-4-----6-6------8-8-8---0-6-8---8-8-8-0-6-8---------------------8----|
E|----------------------------------------------------------------------------------------|
B|----------------------------------------------------------------------------------------|

G|----------6-8------------------8------------------------------8-------------------------|
D|-------------------------------------------------6--------------------------------------|
A|---4-4-4--------4-4-4-----6-6------8-8-8---0-6-8---8-8---6-6----6-6-6-------------------|
E|----------------------------------------------------------------------------------------|
B|----------------------------------------------------------------------------------------|

G|----------4-6------------------8--------------------------------------8-10-8------------|
D|-------------------------------------------------6-------------6-8-10---------10--------|
A|---4-4-4--------4-4-4-----6-6------8-8-8---0-6-8---8-8-8-0-6-8---------------------8----|
E|----------------------------------------------------------------------------------------|
B|----------------------------------------------------------------------------------------|


[Pre-Chorus]
G|----------------------------14-15-17-------------------------------------------------------------------|
D|-8-10-6---------------13-15----------17-18-17-15-----6-8-6-4-------------------------------------------|
A|--------6h8-6h8-6h8-------------------------------------------6--4-4-4-0-4-6-4--3-3-3-3h4p4------------|
E|---------------------------------------------------------------------------------------------4---------|
B|-------------------------------------------------------------------------------------------------------|

G|------------------------------------------------------------------------------|
D|------------------------------------------------------------------------------|
A|-------------------13-15------------------------------------------------------|
E|--1d----13d--13-15-------15---------------------------------------------------|
B|----------------------------15------------------------------------------------|


[Chorus]
G|----------------------------------------------------------------------------------------------------|
D|----------------------------------------------------------------------------------------------------|
A|------------------4-6----------------------6--------------------------------------------------------|
E|------------0-4-6--------------------4-6-8--------------------4-------4-3---------------------------|
B|--2-2-2-2---------------4-4-4--0-4-6------------6-6-6-6-0-4-6---6-6-6-----4-------------------------|


[Outro]
G|----------------------------------------------------------------------------------------------------|
D|----------------------------------------------------------------------------------------------------|
A|-----4----------------8-------------------4\-6-/4--------------8-10h11p10-8-------------------------|
E|---2\---------------6\------------------2\-------------------6\-------------------------------------|
B|-2------2-2-4-4-4-6------6-6---4-4-4--2-------------4-4-4--6------------------4---------------------|


************************************

| h Hammer-on
| p Pull-off
| / Slide up
| \ Slide down
| d  Driving

Almost there ...

Sign in to get your own page with links to favourite songs and more. You are just one click away...

Login with Facebook Login with Google