Log in

One click and you are in

Login with Facebook Login with Google

Why sign up and log in

Guitar Tabs Explorer
Planetshakers bass tabs for Always and forever

Bass tabs with lyrics

Album: Always And Forever



Intro

C	G	A	EFFFEFFFEFFFEFFF\

Let's go

G-------------------------------|-------------------------------|
D-------------------------------|-------------------------------|
A-3-3-3-3-3-3-3-3-------------3-|-----------------------------3-|
E-----------------3-3-1-1-0-0---|-3-3-3-3-3-3-3-3-3-3-1-1-0-0---|

G-------------------------------|-----------------------------------|
D-------------------------------|-----------------------------------|
A-----------------------------3-|---------------------------------3-|
E-5-5-5-5-5-5-5-5-3-3-1-1-0-0---|-0-1-1-1-0-1-1-1-0-1-1-1-0-1-1-1---|


Verse
C
  There's nothing better
G
  Than Living for you
A					 E F F F E F
  Saving my world with you
  F F E F F F|
  There's nothing better
C
  Than praising your name
G
  And lifting my praise
A					 E F F F E F
  I wanna spend forever
  F F E F F F E F F F\
  Standing in your presence

Pre-Chorus
G-------------------------------------|
D-------------------------------------|
A-------------------------------------|
E----------------0-3-0-5\----5-3-5-5\-|
And I wanna show you
G-------------------------------------|
D-------------------------------------|
A-------------------------------------|
E------------1-1-1---3-3-3---5-3-5-5\-|
What you mean to me God
G---------------------------------------------------------|
D---------------------------------------------------------|
A-------------------------33333333222223p2----------------|
E--------1-1-1---3-3-3--------------------h3-----5-3-5-5\-|
I give you my whole life
G-------------------------------------|
D-------------------------------------|
A-------------------------------------|
E------------1-1-1---3-3-3---5-3-5-5\-|
And I've got to tell you
G-------------------------------------|
D-------------------------------------|
A-------------------------------------|
E------------1-1-1---3-3-3---5-3-5-5\-|
I am yours forever
G--------------------------------------------|
D--------------------------------------------|
A---------------------------333333332223335\-|
E----------1-1-1---3-3-3---------------------|
Lord I Give you my whole life


Chorus
C
  Jesus, I will live for you
G
  In everything I do
A           E F
  I'm holding onto you
      F      E G E C\
  always: always and forever
C
  And when my world is falling down
Bb           E  F
  In You I will be found
  F               E
  I'm staying in your arms today
      F      E G E C\
  always: always and forever

G-------------------------------|-------------------------------|
D-------------------------------|-------------------------------|
A-3-3-3-3-3-3-3-3-------------3-|-----------------------------3-|
E-----------------3-3-1-1-0-0---|-3-3-3-3-3-3-3-3-3-3-1-1-0-0---|

G-------------------------------|-----------------------------------|
D-------------------------------|-----------------------------------|
A-----------------------------3-|---------------------------------3-|hold
E-5-5-5-5-5-5-5-5-3-3-1-1-0-0---|-0-1-1-1-0-1-1-1-0-1-1-1-0-1-1-1---|


Verse 2
            G g\
  There's nothing better
G
  Than Living for you
A					  E F F F E F
  Saving my world with you
  F F E F F F
  There's nothing better


Pre-Chorus 2
G-------------------------------------|
D-------------------------------------|
A-------------------------------------|
E-5-3-5-5\-----1-1-1----3-3-3---------|
 And I wanna show you
G-----------------------------------------------|
D-----------------------------------------------|
A-----------------------------------------------|
E--5-3-5-5\------------1-1-1---3-3-3---5-3-5-5\-|
       What you mean to me God
G---------------------------------------------------------|
D---------------------------------------------------------|
A-------------------------33333333222223p2----------------|
E--------1-1-1---3-3-3--------------------h3-----5-3-5-5\-|
I give you my whole life
G-------------------------------------|
D-------------------------------------|
A-------------------------------------|
E------------1-1-1---3-3-3---5-3-5-5\-|
And I've got to tell you
G-------------------------------------|
D-------------------------------------|
A-------------------------------------|
E------------1-1-1---3-3-3---5-3-5-5\-|
I am yours forever
G--------------------------------------------|
D--------------------------------------------|
A---------------------------333333332223335\-|
E----------1-1-1---3-3-3---------------------|
Lord I Give you my whole life

*go to CHORUS*


Ending           7x|        4x
G-----------------------------|------------------||
D-----------------------------|------------------||
A-----------------------------|------------------||
E-1-1-1---(/8)-0-0-0-3-3-3-3~-|-1111111000033333-||

Almost there ...

Sign in to get your own page with links to favourite songs and more. You are just one click away...

Login with Facebook Login with Google