Log in

One click and you are in

Login with Facebook Login with Google

Why sign up and log in

Guitar Tabs Explorer
Planetshakers bass tabs for All for love

Bass tabs

Intro
G]----------------------------7777-|
D]----222-----666--00077767--------|
A]-------44000---77----------------|
E]-222---------------------777-----|
Verse is a D for 2 bars
Then play Intro
D for 1 bar, Bm for 1
Then play intro


Pre-chorus
G]------------------------------------------------------------------|
D]------------------------------------------------------------------|
A]-----------------555555550000000022222222222222225555555555555555-|
E]-0000000022222222-------------------------------------------------|


Chorus
G]--------------------------------------------------|
D]--------------------------------------------------|
A]---------0000000055555555--------0000000055555555-|
E]-22222222----------------22222222-----------------|

G]------------------------------------------------------------------|
D]------------------------------------------------------------------|
A]-----------------555555550000000022222222222222225555555555555555-|
E]-0000000022222222-------------------------------------------------|

Then Intro and repeat to this point


Bridge

G]-----------------------------------------------------------------|
D]-----------------------------------------------------------------|
A]-5-5-5-5-2-2-2-2---------0-0-0-0-5-5-5-5-2-2-2-2-----------------|
E]-----------------2-2-2-2-------------------------2-2-2-2-2-2-2-2-|


Chorus again then Outro


Outro

G]----------------------------7777-|
D]----222-----666--00077767--------|
A]-------44000---77----------------|
E]-222---------------------777-----|

G]---------------------|
D]----222-----666--000-|
A]-------44000---77----|
E]-222-----------------|

Almost there ...

Sign in to get your own page with links to favourite songs and more. You are just one click away...

Login with Facebook Login with Google