Log in

One click and you are in

Login with Facebook Login with Google

Why sign up and log in

Guitar Tabs Explorer
Plan B bass tabs for Stay too long

Bass tabs with lyrics

hey guys. maybe couple of fills extra that are are chucked in but otherwise solid. let
know if any ideas before negative rating.


intro

|-------------------------------------------|
|--------------------------5p3--------------|
|------------------------------5p3----------|
|-1-3--8-6-3-1-1h3----x3-----------6--------|

chorus (0:12)

|-------------------------------------------|
|-------------------------------------------|
|----1h3----5h7-----------------------------|
|-11-----55------33-8-6-3-111(0)---x2-------|


verse a (0:25)

|-------------------------------------------|
|-------------------------------------------|
|-------------------------------------------|
|-1-3--8-6-3---1111h33---8-6-3--1111h33-----|


|-------------------------------------------|
|----------------------------10-------------|
|-----10-888h101010--10p8-------------------|
|-8-6---------------------------10p8h10p6---|

(sometime stays at the the octave below)

chorus x2 (0:36)


bridge a (0:57)

|-------------------------------------------|
|-------------------------------------------|
|-------------------------------------------|
|--333--8-6---3333-8-6--333-8-6--333--------|


verse b (1:03)
|-------------------------------------------|
|-------------------------------------------|
|-----------6-------------------------------|
|-1h3333--66--6-----------------------------|


bridge b
|-------------------------------------------|
|---------------1h3-------------------------|
|-----------1h3-----------------------------|
|-1--8--3-----------1-8-33333333------------|


verse b


chorus


bridge a


verse b


chorus


bridge a


breakdown (no drums)

|-------------------------------------------|
|-------------------------------------------|
|-------------------------------------------|
|-1h3333--1h3333--1h3333-1h33333333---------|


verse b

0:00 intro
0:12 chorus
0:25 verse a
0:36 chorus
0:57 bridge a
1:03 verse b
1:27 bridge b
1:38 verse b
1:51 chorus
2:13 bridge a
2:24 breakdown (no drums)
2:36 verse b
3:34

Almost there ...

Sign in to get your own page with links to favourite songs and more. You are just one click away...

Login with Facebook Login with Google