Log in

One click and you are in

Login with Facebook Login with Google

Why sign up and log in

Guitar Tabs Explorer
Placebo bass tabs for Protect me from what i want

Protect Me From What I Want bass tab - Placebo

Placebo bass tabs for Protect me from what i want

Bass tabs

Placbeo- Protect Me From What I Want (Sleeping With Ghosts)

Tabbed By Zoe Jackson

This is all my own tabbing, not taken from any other sources.

1st Verse

G------------454-----------------54-42----------------
D--0-1------------5-4---0-1-------------5-4-----------
A-----------------------------------------------------
E-----------------------------------------------------
Chorus and following verses

G----------------------------------------------------------2-333-22-2-333-22
D-0-22-0-22-0-22-0-22-0-22-0-22-0-22-0-22-------------------------
A-----------------------------------------------------------------------------

---
E-----------------------------------------------------------------------------

--

G--2-333-22-2-333-22-444-5-44--------------------
D-------------------------------------------555-444-2----
A-----------------------------------------------------------
E----------------------------------------------------------- repeat


Bridge

G---------7-9---------7-9---------7-9--454-------
D--2-------------2------------2------------------5-4--
A-----------------------------------------------------
E-----------------------------------------------------

ok, am not sure if this is completely right! But almost.

Almost there ...

Sign in to get your own page with links to favourite songs and more. You are just one click away...

Login with Facebook Login with Google