Log in

One click and you are in

Login with Facebook Login with Google

Why sign up and log in

Guitar Tabs Explorer
Placebo tabs for Post blue

Guitar tabs

ok this is the way i play this song.
the intro sounds really cool with delay.


Tuning: Placebo standard tuning


INTRO:
------------------------------------------------------------|
------------------1-3-1-------------------------------------|
------7-7-3-5---2-------3-2-3-----Repeat-X2-----------------|
----5---------4---------------------------------------------|
------------------------------------------------------------|
------------------------------------------------------------|

-----------------------------------------|
-----------------------------------------|
------3-2-3---3-2-3---3-2-3-5-3-2-3------|
----5-------5-------5--------------------|
-----------------------------------------|
-----------------------------------------|

-----------------------------------------|
-----------------------------------------|
------3-2-3---3-2-3---3-2-3-5-3-2-3------|
----5-------5-------5---------------5----|
-----------------------------------------|
-----------------------------------------|


VERSE (the way i play it) -
| ~~~~~~~~~~~~~~~~~~~~P.M.~~~~~~~~~~|
|---------------------|------------------------------------|
|---------------------|------------------------------------|
|---------------------|------------------------REPEAT X2---|
|-5-5-5-5-5-5-5-5-5s7-7-7-7-7-7-7-7-7-8~s5-----------------|
|---------------------|------------------------------------|
|---------------------|------------------------------------|

And then play this:
|---------------------|---------------------------------------------------------|
|---------------------|---------------------------------------------------------|
|-7-7-7-7-7-7-7-7-7s8~s5-5-5-5-5-5-5-5-5s7~s3-3-3-3-3-3-3-3-3s5~s2~2-3-5-3-2-3--|
|---------------------|--------------------------------------------------------5|
|---------------------|---------------------------------------------------------|
|---------------------|---------------------------------------------------------|


CHORUS -

-----------------------------------------|
-----------------------------------------|
------3-2-3---3-2-3---3-2-3-5-3-2-3------|
----5-------5-------5---------------5----|
-----------------------------------------|
-----------------------------------------|

and that's it. enjoy.

ⓘ Guitar tab for 'Post Blue' by Placebo, an alternative rock band formed in 1994 from London, England. Placebo is known for their bittersweet rock/pop music.

Almost there ...

Sign in to get your own page with links to favourite songs and more. You are just one click away...

Login with Facebook Login with Google