Log in

One click and you are in

Login with Facebook Login with Google

Why sign up and log in

Guitar Tabs Explorer
Placebo tabs for Nancy boy

Guitar tabs

NANCY BOY - Placebo

TUNE UP HALF A chord diagramA augmentedA STEP OR PLACE CAPO ON FIRST FRET.

e:--------------------------------------------------------------|
B:--------------------------------------------------------------|
G:--------------------------------------------------------------|
D:8--8--8--8--8--8--8--8--8--8--8--8--8--8--8--8--8--8--8--8--8-|
A:7--7--7--7--7--7--7--7--7--7--7--7--7--7--7--7--7--7--7--7--7-|
E:0--0--0--0--0--0--0--0--0--0--0--0--0--0--0--0--0--0--0--0--0-|
  INTRO/VERSE

e:--------------------------------------------------------------|
B:--------------------------------------------------------------|
G:---8--8--8--8--8--8--8--8--8--8--8--8--8--8--8--8--8--8--8--8-|
D:---7--7--7--7--7--7--7--7--7--7--7--7--7--7--7--7--7--7--7--7-|
A:---0--0--0--0--0--0--0--0--0--0--0--0--0--0--0--0--0--0--0--0-|
E:--------------------------------------------------------------|

e:--------------------------------------------------------------|
B:--------------------------------------------------------------|
G:--------------------------------------------------------------|
D:-----8--8--8--8--8--8--8--8--9--9--9--9--9--9--9--9--8--8--8--|
A:-----7--7--7--7--7--7--7--7--9--9--9--9--9--9--9--9--8--8--8--|
E:-----0--0--0--0--0--0--0--0--7--7--7--7--7--7--7--7--6--6--6--|
   CHORUS

e:-------------------------------------|
B:-------------------------------------|
G:-------------------------------------|
D:8--8--8--8--8--7--7--7--7--7--7--7--7|
A:8--8--8--8--8--7--7--7--7--7--7--7--7|
E:6--6--6--6--6--5--5--5--5--5--5--5--5|

ⓘ Guitar tab for 'Nancy Boy' by Placebo, an alternative rock band formed in 1994 from London, England. Placebo is known for their bittersweet rock/pop music.

Almost there ...

Sign in to get your own page with links to favourite songs and more. You are just one click away...

Login with Facebook Login with Google