Log in

One click and you are in

Login with Facebook Login with Google

Why sign up and log in

Guitar Tabs Explorer
Placebo tabs for Miss moneypenny

Guitar tabs

Miss Monneypenny - Placebo

>From the Nancy Boy single...


Main Riff:

e--------------------------------------------
B--6-6-6-/-7-7-7-7--8-8-8--7-7-7-7-7-7-7-7---
G--7-7-7-/-8-8-8-8--9-9-9--8-8-8-8-8-8-8-8---
D--7-7-7-/-8-8-8-8--9-9-9--8-8-8-8-8-8-8-8---
A--5-5-5-/-6-6-6-6--7-7-7--6-6-6-6-6-6-6-6---
E--------------------------------------------

For the verse, hold this chord:

e------
B--6---
G--7---
D--7---
A--5---
E------

For the bridge:

e-----------------------------------------------
B-----------------------------------------------
G--6-6-6--6-6-6-6-6-6-6-6---8-8-8--x--8-8-8-8---
D--7-7-7--7-7-7-7-7-7-7-7---9-9-9--x--9-9-9-9---
A--7-7-7--7-7-7-7-7-7-7-7---9-9-9--x--9-9-9-9---
E--5-5-5--5-5-5-5-5-5-5-5---7-7-7--x--7-7-7-7---

ⓘ Guitar tab for 'Miss Moneypenny' by Placebo, an alternative rock band formed in 1994 from London, England. Placebo is known for their bittersweet rock/pop music.

Almost there ...

Sign in to get your own page with links to favourite songs and more. You are just one click away...

Login with Facebook Login with Google