Log in

One click and you are in

Login with Facebook Login with Google

Why sign up and log in

Guitar Tabs Explorer
Placebo bass tabs for Meds

Bass tabs

Tuning: Standard (E A D G)

Bass starts at 0:37

As if they could erase us                  x2
G|-----------------------|---------|---------|--------|--------|
D|-----------------------|---------|---------|--------|--------|
A|-----------------------|---------|---------|--------|--------|
E|----------------------8|12-------|10-------|8-------|7-------|


Verse:
G|--------|--------|--------|--------|
D|--------|--------|--------|--------|
A|7--7--7-|--------|--------|--------|
E|--------|3--3--3-|8--8--8-|7--7--7-|

G|---------|--------|--------|--------|
D|---------|--------|--------|--------|
A|5p7-7--7-|--------|--------|--------|
E|---------|3--3--3-|8--8--8-|7--7--7-|

G|---------|--------|--------|--------|
D|---------|--------|--------|--------|
A|5p7-7--7-|--------|--------|--------|
E|---------|3--3--3-|8--8--8-|7--7--7-|

G|---------|--------|--------|--------|
D|---------|--------|--------|--------|
A|5p7-7--7-|--------|--------|--------|
E|---------|3--3--3-|8--8--8-|7--7--7-|


Chorus:
G|--------|--------|--------|---------|
D|--------|--------|--------|---------|
A|7--7--7-|5--5--5-|3--3--3-|2--2--2-7|
E|--------|--------|--------|---------|

G|--------|--------|--------|---------|
D|--------|--------|--------|---------|
A|7--7--7-|5--5--5-|3--3--3-|2--2--2-7|
E|--------|--------|--------|---------|

G|--------|--------|--------|---------|
D|--------|--------|--------|---------|
A|7--7--7-|5--5--5-|3--3--3-|2--2--2-7|
E|--------|--------|--------|---------|

G|--------|--------|--------|---------|
D|--------|--------|--------|---------|
A|7--7--7-|5--5--5-|3--3--3-|2--2--2/7|
E|--------|--------|--------|---------|


Bridge:
G|----------------|----------------|----------------|----------------|
D|----------------|----------------|----------------|----------------|
A|5-5-5-5-5-5-5-5-|5-5-5-5-5-5-5-5-|5-5-5-5-5-5-5-5-|5-5-5-5-5-5-5-5-|
E|----------------|----------------|----------------|----------------|

G|----------------|----------------|----------------|----------------|
D|----------------|----------------|----------------|----------------|
A|7-7-7-7-7-7-7-7-|7-7-7-7-7-7-7-7-|7-7-7-7-7-7-7-7-|7-7-7-7-7-7-7-7-|
E|----------------|----------------|----------------|----------------|

G|----------------|----------------|----------------|----------------|
D|----------------|----------------|----------------|----------------|
A|5-5-5-5-5-5-5-5-|5-5-5-5-5-5-5-5-|5-5-5-5-5-5-5-5-|5-5-5-5-5-5-5-5-|
E|----------------|----------------|----------------|----------------|

G|----------------|----------------|----------------|----------------|
D|----------------|----------------|----------------|----------------|
A|7-7-7-7-7-7-7-7-|7-7-7-7-7-7-7-7-|7-7-7-7-7-7-7-7-|7-7-7-7-7-7-7-7-|
E|----------------|----------------|----------------|----------------|

G|----------------|
D|----------------|
A|7-7-5-5-5-7-5-7-|
E|----------------|


Chorus:
G|----------------|----------------|----------------|----------------|
D|----------------|----------------|----------------|----------------|
A|7-7-7-7-7-7-7-7-|5-5-5-5-5-5-5-5-|3-3-3-3-3-3-3-3-|2-2-2-2-2-2-2-2-|
E|----------------|----------------|----------------|----------------|

G|----------------|----------------|----------------|----------------|
D|----------------|----------------|----------------|----------------|
A|7-7-7-7-7-7-7-7-|5-5-5-5-5-5-5-5-|3-3-3-3-3-3-3-3-|2-2-2-2-2-2-2-2-|
E|----------------|----------------|----------------|----------------|

G|----------------|----------------|----------------|----------------|
D|----------------|----------------|----------------|----------------|
A|7-7-7-7-7-7-7-7-|5-5-5-5-5-5-5-5-|3-3-3-3-3-3-3-3-|2-2-2-2-2-2-2-2-|
E|----------------|----------------|----------------|----------------|

G|----------------|----------------|----------------|----------------|
D|----------------|----------------|----------------|----------------|
A|7-7-7-7-7-7-7-7-|5-5-5-5-5-5-5-5-|3-3-3-3-3-3-3-3-|2-2-2-2-2-2-2-2-|
E|----------------|----------------|----------------|----------------|

G|----------------|------------------------|----------------|----------------|
D|----------------|------------------------|----------------|----------------|
A|7-7-7-7-7-7-7-7-|10-10-10-10-10-10-10-10-|3-3-3-3-3-3-3-3-|2-2-2-2-2-2-2-2-|
E|----------------|------------------------|----------------|----------------|

G|----------------|------------------------|----------------|----------------|
D|----------------|------------------------|----------------|----------------|
A|7-7-7-7-7-7-7-7-|10-10-10-10-10-10-10-10-|3-3-3-3-3-3-3-3-|2-2-2-2-2-2-2-2-|
E|----------------|------------------------|----------------|----------------|


************************************

| p Pull-off
| / Slide up
| x Dead note
ⓘ Bass guitar tab for 'Meds' by Placebo, an alternative rock band formed in 1994 from London, England. Placebo is known for their bittersweet rock/pop music.

Almost there ...

Sign in to get your own page with links to favourite songs and more. You are just one click away...

Login with Facebook Login with Google