Log in

One click and you are in

Login with Facebook Login with Google

Why sign up and log in

Guitar Tabs Explorer
Placebo bass tabs for Leni

Bass tabs

This is about 99.99% correct…please email me if you find something
wrong with it! Shortie4112003@yahoo.com

Standard tuning (weird for Placebo—they usually tune up!)
Key: (\)= slide down (/)= slide up (~)= let note ring

Intro…
G-----------------------------------------------|
D-----------------------------------------------|
A-5-5-55-5-5-7-7-77-7\2/10-10-1010-10-10-9999-9-|
E-----------------------------------------------|
Verse
G-----------------------------------------------|
D-----------------------------------------------|
A-----------------------7~----------------------|
E--7~-------------------------------------------|
   I kneel before her… Beneath this frozen sky

G-----------------------------------------------|
D-----------------------------------------------|
A10~---------------------9~---------------------|
E-----------------------------------------------|
  Beneath her shoulder…  Beneath her evil eye…
  I beg below her…	  My limbs are paralyzed

G-----------------------------------------------|
D-----------------------------------------------|
A---------------------7~------------------------|
E-7~--------------------------------------------|
   She towers over…	 This male who is a fly…
  She beats me harder	 Than any kind of guy…

G-----------------------------------------------|
D-----------------------------------------------|
A-10~----------------------9~-------------------|
E-----------------------------------------------|
   My Sci-fi lullaby…

Order of the song:

Intro

Verse

Intro

Verse

Intro

Verse

Like I said…very easy song!

Almost there ...

Sign in to get your own page with links to favourite songs and more. You are just one click away...

Login with Facebook Login with Google