Log in

One click and you are in

Login with Facebook Login with Google

Why sign up and log in

Guitar Tabs Explorer
Placebo tabs for Johnny and mary

Guitar tabs

Placebo
Johnny and Mary

Tabbed By: Daniel Lee Hill
ICQ: 7831222


Intro:

A chord diagramG#5G#5


Verse:

A chord diagramG#5G#5 A chord diagramF5F5


Pre-Chorus:

E--------------------------------------------------------|
B--------------------------------------------------------|
B--------------------------------------------------------|
D--5-5-5-5-5-6-6-6-6-6-6-6-10-10-10-10-10-8-8-8-8-8-8-8--|
A--------------------------------------------------------|
E--------------------------------------------------------|


Chorus/Solo:

E-----------|--------------|-----------|---------|
B-----------|--------------|-----------|---------|
G-----------|--------------|-----------|---------|
D--3-5-6-8--|--10-10-10-8--|--6-6-6-5--|--5------|
A-----------|--------------|-----------|----3-3--|
E-----------|--------------|-----------|---------|

E-----------|--------------|-----------|---------|
B-----------|--------------|-----------|---------|
G-----------|--------------|-----------|---------|
D--3-5-6-8--|--10-10-10-8--|--6-6-6-5--|--5^-----|
A-----------|--------------|-----------|---------|
E-----------|--------------|-----------|---------|

E--------------|-------------------|
B--------------|-------------------|
B--------------|-------------------|
D--10-8-6-5-3--|--3-5-6-8-10-11-8--|
A--------------|-------------------|
E--------------|-------------------|


Outro:

E-------|
B-------|
G-------|
D--8^~--|
A-------|
E-------|

ⓘ Guitar tab for 'Johnny And Mary' by Placebo, an alternative rock band formed in 1994 from London, England. Placebo is known for their bittersweet rock/pop music.

Almost there ...

Sign in to get your own page with links to favourite songs and more. You are just one click away...

Login with Facebook Login with Google