Log in

One click and you are in

Login with Facebook Login with Google

Why sign up and log in

Guitar Tabs Explorer
Placebo bass tabs for For what its worth

Bass tabs

-------------------------------------------------------------------------------
               For What It's Worth – Placebo
-------------------------------------------------------------------------------

Tabbed By : Hardway Juice


Tuning: D#,G#,C#,F# (Half-step down from standard)


Intro and Verse 1

F#|----------------|----------------|----------------|----------------|
C#|----------------|----------------|----------------|----------------|
G#|9999999999999777|9999999999977777|9999999999999777|9999999999977777|
D#|----------------|----------------|----------------|----------------| x2
  1&2&3&4&5&6&7&8& 1&2&3&4&5&6&7&8& 1&2&3&4&5&6&7&8& 1&2&3&4&5&6&7&8&

F#|----------------|----------------|----------------|----------------|
C#|----------------|----------------|----------------|----------------|
G#|9999999999999777|9999999999977777|9999999999999777|9---------------|
D#|----------------|----------------|----------------|----------------|
  1&2&3&4&5&6&7&8& 1&2&3&4&5&6&7&8& 1&2&3&4&5&6&7&8& 1&2&3&4&5&6&7&8&


Chorus 1

F#|----------------|----------------|----------------|----------------|
C#|----------------|----------------|----------------|----------------|
G#|----------------|----------------|----------------|----------------|
D#|2222222222222222|2222222222222222|0000000000000000|222222222-------|
  1&2&3&4&5&6&7&8& 1&2&3&4&5&6&7&8& 1&2&3&4&5&6&7&8& 1&2&3&4&5&6&7&8&



Verse 2

F#|----------------|----------------|----------------|----------------|
C#|----------------|----------------|----------------|----------------|
G#|9999999999999777|9999999999977777|9999999999999777|9999999999977777|
D#|----------------|----------------|----------------|----------------|
  1&2&3&4&5&6&7&8& 1&2&3&4&5&6&7&8& 1&2&3&4&5&6&7&8& 1&2&3&4&5&6&7&8&

F#|----------------|----------------|----------------|----------------|
C#|------7---------|------7---------|------7---------|-------------4-4| Really pop these 4's
G#|999999-999999777|999999-999977777|999999-999999777|9---------------|
D#|----------------|----------------|----------------|----------------|
  1&2&3&4&5&6&7&8& 1&2&3&4&5&6&7&8& 1&2&3&4&5&6&7&8& 1&2&3&4&5&6&7&8&


Chorus 2

F#|----------------|----------------|----------------|----------------|
C#|----------------|----------------|----------------|----------------|
G#|----------------|----------------|----------------|----------------| F = 14th fret
D#|2222222222222222|2222222222222222|0000000000000000|22222222222//F\\| Slow slide up then
  1&2&3&4&5&6&7&8& 1&2&3&4&5&6&7&8& 1&2&3&4&5&6&7&8& 1&2&3&4&5&6&7&8&  back down

F#|----------------|----------------|----------------|----------------|
C#|----------------|----------------|----------------|----------------|
G#|----------------|----------------|----------------|----------------|
D#|2222222222222222|2222222222222222|0000000000000000|222222222-------|
  1&2&3&4&5&6&7&8& 1&2&3&4&5&6&7&8& 1&2&3&4&5&6&7&8& 1&2&3&4&5&6&7&8&


80's video-game music break


Bridge

F#|----------------|----------------|----------------|----------------|
C#|----------------|----------------|----------------|----------------|
G#|----------------|----------------|----------------|------------2-4-|
D#|2------------5-0|2------------5-5|0--------------0|2-------2-5-----|
  1&2&3&4&5&6&7&8& 1&2&3&4&5&6&7&8& 1&2&3&4&5&6&7&8& 1&2&3&4&5&6&7&8&

F#|----------------|----------------|----------------|----------------|
C#|----------------|----------------|----------------|----------------|
G#|----------------|----------------|----------------|-------------4-4| Really pop these 4's
D#|2------------5-0|2------------5-5|0------------5-0|2---------------|
  1&2&3&4&5&6&7&8& 1&2&3&4&5&6&7&8& 1&2&3&4&5&6&7&8& 1&2&3&4&5&6&7&8&


Chorus 3

F#|----------------|----------------|----------------|----------------|
C#|----------------|----------------|----------------|----------------|
G#|----------------|----------------|----------------|----------------| F = 14th fret
D#|2222222222222222|2222222222222222|0000000000000000|22222222222//F\\| Slow slide up then
  1&2&3&4&5&6&7&8& 1&2&3&4&5&6&7&8& 1&2&3&4&5&6&7&8& 1&2&3&4&5&6&7&8&  back down

F#|----------------|----------------|----------------|----------------|
C#|----------------|----------------|----------------|----------------|
G#|----------------|----------------|----------------|----------------|
D#|2222222222222222|2222222222222222|0000000000000000|2---------------|
  1&2&3&4&5&6&7&8& 1&2&3&4&5&6&7&8& 1&2&3&4&5&6&7&8& 1&2&3&4&5&6&7&8&


| / slide up
| \ slide down
| h hammer-on
| p pull-off
| ~ vibrato
| + harmonic
ⓘ Bass guitar tab for 'For What Its Worth' by Placebo, an alternative rock band formed in 1994 from London, England. Placebo is known for their bittersweet rock/pop music.

Almost there ...

Sign in to get your own page with links to favourite songs and more. You are just one click away...

Login with Facebook Login with Google