Log in

One click and you are in

Login with Facebook Login with Google

Why sign up and log in

Guitar Tabs Explorer
Placebo chords for Every me every you

Guitar chords with lyrics

Band: Placebo

Tuning: It's Standard Placebo Tuning(A chord diagramFF A chord diagramBb majorBb A chord diagramEb MajorEb A chord diagramG#G# A chord diagramC majorC A chord diagramC majorC) Or Just put a Capo
On
The First Fret
Tabbed By: $@NDER


Verse
|----------------------------------------|
|----------------------------------------|
|----------------------------------------|
|-6-6-6-6-6-6-6-6-6-6-6-6-8-8-8-8--------|
|-4-4-4-4-4-4-4-4-4-4-4-4-6-6-6-6--------|
|-----------------5-5-5-5-7-7-7-7--------|

|----------------------------------------|
|----------------------------------------|
|----------------------------------------|
|-6-6-6-6-6-6-6-6-6-6-6-6----------------|
|-4-4-4-4-4-4-4-4-4-4-4-4-7-7-7-7--------|
|-----------------5-5-5-5-5-5-5-5--------|


Chorus
|-----0-----0-----0-----0-----0-----0-----0-----0-|
|-----0-----0-----0-----0-----0-----0-----0-----0-|
|-----6-----6-----6-----6-----6-----6-----6-----6-|
|-----7-----7-----7-----7-----6-----6-----6-----6-|
|-----7-----7-----7-----7-4-4-4-4-4-4-4-4-4-4-4-4-|
|-5-5-5-5-5-5-5-5-5-5-5-5-------------------------|

End With
|-4-4-4-4-4-4-4-4--------------------------------|
|-4-4-4-4-4-4-4-4--------------------------------|
|-4-4-4-4-4-4-4-4--------------------------------|
|-6-6-6-6-6-6-6-6-6-6-6-6-6-6-6-6----------------|
|-6-6-6-6-6-6-6-6-6-6-6-6-6-6-6-6----------------|
|-----------------4-4-4-4-4-4-4-4----------------|

If you Want to play the slow acoustic version play the chord like this
|-0---------------------------------------|
|-0---------------------------------------|
|-6---------------------------------------|
|-6---------------------------------------|
|-4---------------------------------------|
|-----------------------------------------|
The rest is the same only slower

 


Band: Placebo

Tuning: STANDARD TUNING (OR IF YOU'RE LIKE ME AND KEEP THE GUITAR DROPPED
1/2 A chord diagramA augmentedA STEP DOWN, IT STILL SOUNDS FINE)
Tabbed By: EMMA

THIS IS FOR ALL YOU KIDS OUT THERE WHO WANNA PLAY THIS SONG WITHOUT
HAVING TO TUNE TO 'PLACEBO TUNING' WHICH CAN BE A chord diagramA augmentedA PAIN IN THE ASS.
THIS IS SO EASY, IT'S A chord diagramA augmentedA SHAME.


INTRO

--x--------x-------x--------x-------x------x-----------------------------
--3--------x-------x--------3-------x------x-----------------------------
--2-(x8)---0-(x4)--x-(x4)---2-(x8)--0-(x4)-3-(x4)-----(REPEAT)-----------
--0--------0-------2--------0-------0------3-----------------------------
-----------1-------3----------------1------1-----------------------------
-----------0-------0-----------------------------------------------------

REPEAT THE ABOVE ALL THROUGHOUT VERSE, THEN, WHEN HE SINGS 'CARVE YOUR
NAME..."

--x-------x--------x-------x---------------------------------------------
--x-------3--------x-------x-------2-------------------------------------
--3-(16x)-2--(16x)-3-(16x)-x-(8x)--2-(8x)--------------------------------
--3-------0--------3-------3-------2-------------------------------------
--1----------------1-------3---------------------------------------------
---------------------------1---------------------------------------------
THEN PLAY INTRO VERSE BIT AGAIN

FOR THE BIT WHERE 'EVERY ME AND EVERY YOU, EVERY ME-EE' IS REPEATED, JUST
PLAY THIS BIT OVER AND OVER - YOU'LL KNOW WHERE THE CHORD CHANGES GO AND
HOW THE STRUMMING PATTERN GOES.

--x-----x----------------------------------------------------------------
--x-----x----------------------------------------------------------------
--3-----x----------------------------------------------------------------
--3-----3----------------------------------------------------------------
--1-----3----------------------------------------------------------------
--------1----------------------------------------------------------------

THAT'S IT. EASY.
ⓘ Guitar chords for 'Every Me Every You' by Placebo, an alternative rock band formed in 1994 from London, England. Placebo is known for their bittersweet rock/pop music.

Almost there ...

Sign in to get your own page with links to favourite songs and more. You are just one click away...

Login with Facebook Login with Google