Log in

One click and you are in

Login with Facebook Login with Google

Why sign up and log in

Guitar Tabs Explorer
Placebo tabs for Come undone

Guitar tabs

Intro/Verse:


Guitar 1:

---15--------15--------15------------------------------|
------18--------18--------18-----(18)------(18)--------|
---------17--------17--------17~------(17)------(17)---|
-------------------------------------------------------|
-------------------------------------------------------|
-------------------------------------------------------|

---15--------15--------15------------------------------|
------18--------18-----------18~------(18)------(18)---|
---------17--------17-----17-----(17)------(17)--------|
-------------------------------------------------------|
-------------------------------------------------------|
-------------------------------------------------------|


---15--------15--------15------------------------------|
------18--------18--------18-----(18)------(18)--------|
---------17--------17--------17~------(17)------(17)---|
-------------------------------------------------------|
-------------------------------------------------------|
-------------------------------------------------------|

---15--------15--------15------------------------------|
------18--------18-----------18~------(18)------(18)---|
---------17--------17-----17-----(17)------(17)--------|
-------------------------------------------------------|
-------------------------------------------------------|
-------------------------------------------------------|


---15--------15--------15------------------------------|
------18--------18--------18-----(18)------(18)--------|
---------17--------17--------17~------(17)------(17)---|
-------------------------------------------------------|
-------------------------------------------------------|
-------------------------------------------------------|

---15--------15--------15------------------------------|
------18--------18-----------18~------(18)------(18)---|
---------17--------17-----17-----(17)------(17)--------|
-------------------------------------------------------|
-------------------------------------------------------|
-------------------------------------------------------|


---15--------15--------15------------------------------|
------18--------18--------18-----(18)------(18)--------|
---------17--------17--------17~------(17)------(17)---|
-------------------------------------------------------|
-------------------------------------------------------|
-------------------------------------------------------|

---15--------15--------15------------------------------|
------18--------18-----------18~------(18)------(18)---|
---------17--------17-----17-----(17)------(17)--------|
-------------------------------------------------------|
-------------------------------------------------------|
-------------------------------------------------------|


---15--------15--------15------------------------------|
------18--------18--------18-----(18)------(18)--------|
---------17--------17--------17~------(17)------(17)---|
-------------------------------------------------------|
-------------------------------------------------------|
-------------------------------------------------------|

---15--------15--------15------------------------------|
------18--------18-----------18~------(18)------(18)---|
---------17--------17-----17-----(17)------(17)--------|
-------------------------------------------------------|
-------------------------------------------------------|
-------------------------------------------------------|


Guitar 2 (quiet):

-------------------------------------|
-------------------------------------|
-------------------------------------|
-------------------------------------|
---3-3-3-3-3-3-3-3-3-3-3-3-3-3-3-3---|
-------------------------------------|
   . . . . . . . . . . . . . . . .


-------------------------------------|
-------------------------------------|
-------------------------------------|
-------------------------------------|
---1-1-1-1-1-1-1-1-1-1-1-1-1-1-1-1---|
-------------------------------------|
   . . . . . . . . . . . . . . . .


-------------------------------------|
-------------------------------------|
-------------------------------------|
-------------------------------------|
---3-3-3-3-3-3-3-3-3-3-3-3-3-3-3-3---|
-------------------------------------|
   . . . . . . . . . . . . . . . .


-------------------------------------|
-------------------------------------|
-------------------------------------|
-------------------------------------|
---1-1-1-1-1-1-1-1-1-1-1-1-1-1-1-1---|
-------------------------------------|
   . . . . . . . . . . . . . . . .


-------------------------------------|
-------------------------------------|
-------------------------------------|
-------------------------------------|
---3-3-3-3-3-3-3-3-3-3-3-3-3-3-3-3---|
-------------------------------------|
   . . . . . . . . . . . . . . . .


-------------------------------------|
-------------------------------------|
-------------------------------------|
-------------------------------------|
---1-1-1-1-1-1-1-1-1-1-1-1-1-1-1-1---|
-------------------------------------|
   . . . . . . . . . . . . . . . .


-------------------------------------|
-------------------------------------|
-------------------------------------|
-------------------------------------|
---3-3-3-3-3-3-3-3-3-3-3-3-3-3-3-3---|
-------------------------------------|
   . . . . . . . . . . . . . . . .


-------------------------------------|
-------------------------------------|
-------------------------------------|
-------------------------------------|
---1-1-1-1-1-1-1-1-1-1-1-1-1-1-1-1---|
-------------------------------------|
   . . . . . . . . . . . . . . . .


-------------------------------------|
-------------------------------------|
-------------------------------------|
-------------------------------------|
-------------------------------------|
---4-4-4-4-4-4-4-4-4-4-4-4-4-4-4-4---|
   . . . . . . . . . . . . . . . .


-------------------------------------|
-------------------------------------|
-------------------------------------|
-------------------------------------|
---1-1-1-1-1-1-1-1-1-1-1-1-1-1-1-1---|
-------------------------------------|
   . . . . . . . . . . . . . . .



Chorus-Solo:


Guitar 1 (Distortion):

---3-----3-----3--------|
-----6-----6-----6------|
-------5-----5-----5~---|
------------------------|
------------------------|
------------------------|

---3-----3-----3--------|
-----6-----6-------6~---|
-------5-----5---5------|
------------------------|
------------------------|
------------------------|

---3---(8)--3--(8)---3--(8)---|
-----6--------6--------6------|
--------5-------5--------5~---|
------------------------------|
------------------------------|
------------------------------|

---3-----3-----3--------|
-----6-----6-------6~---|
-------5-----5---5------|
------------------------|
------------------------|
------------------------|

---3-----3-----3----------|
-----4-----4-------4~-/6--|
-------5-----5---5--------|
--------------------------|
--------------------------|
--------------------------|

---3-----3-----3---------8---|
-----6-----6-------6~-/8-----|
-------5-----5---5-----------|
-----------------------------|
-----------------------------|
-----------------------------|

   TP    TP    TP    TP    TP    TP    TP    TP
------8-----8-----8-----8-----8-----8-----8-----8---|
---88----88----88----88----88----88----88----88-----|
----------------------------------------------------|
----------------------------------------------------|
----------------------------------------------------|
----------------------------------------------------|

   TP    TP    TP    TP    TP    TP    TP    TP
------8-----8-----8-----8-----8-----8-----8-----8---|
---88----88----88----88----88----88----88----88-----|
----------------------------------------------------|
----------------------------------------------------|
----------------------------------------------------|
----------------------------------------------------|

-----------------------6-----8-8-8---|
-----4-----6-----8-------------------|
---5---5-5---5-5---5-5---5-5---------|
-------------------------------------|
-------------------------------------|
-------------------------------------|

-----------------------6-----8-8-8---|
-----4-----6-----8-------------------|
---5---5-5---5-5---5-5---5-5---------|
-------------------------------------|
-------------------------------------|
-------------------------------------|

-----------------------6-----8-8-8---|
-----4-----6-----8-------------------|
---5---5-5---5-5---5-5---5-5---------|
-------------------------------------|
-------------------------------------|
-------------------------------------|

-----------------------6-----8-8-8---|
-----4-----6-----8-------------------|
---5---5-5---5-5---5-5---5-5---------|
-------------------------------------|
-------------------------------------|
-------------------------------------|

---8-888------------11-11-11-11----|
---------8-9\8---------------------|
-----------------------------------|
-----------------------------------|
-----------------------------------|
-----------------------------------|

---8-888------------11-11-11-11----|
---------8-9\8---------------------|
-----------------------------------|
-----------------------------------|
-----------------------------------|
-----------------------------------|

---8-888------------11-11-11-11----|
---------8-9\8---------------------|
-----------------------------------|
-----------------------------------|
-----------------------------------|
-----------------------------------|

---8-888------------13-13-13-13----|
---------8-9\8---------------------|
-----------------------------------|
-----------------------------------|
-----------------------------------|
-----------------------------------|

---11-11-11-11---------11-11-11-11----|
----------------8-9\8-----------------|
--------------------------------------|
--------------------------------------|
--------------------------------------|
--------------------------------------|

---8-888------------11-11-11-11----|
---------8-9\8---------------------|
-----------------------------------|
-----------------------------------|
-----------------------------------|
-----------------------------------|

---8-888------------13-13-13-13----|
---------8-9\8---------------------|
-----------------------------------|
-----------------------------------|
-----------------------------------|
-----------------------------------|

---11-11-11-11----------------|
----------------8-9p8h9p8-6---|
------------------------------|
------------------------------|
------------------------------|
------------------------------|

   TP       TP   TP
------------3----4---|
---6--------6----6---|
---------------------|
---------------------|
---------------------|
---------------------|

   TP       TP   TP
------------3----4---|
---6--------6----6---|
---------------------|
---------------------|
---------------------|
---------------------|

   TP       TP   TP
------------3----4---|
---6--------6----6---|
---------------------|
---------------------|
---------------------|
---------------------|

   TP       TP   TP
------------3----4---|
---6--------6----6---|
---------------------|
---------------------|
---------------------|
---------------------|


Guitar 2 (Distortion):

--------------------------------------|
--------------------------------------|
--------------------------------------|
---5-5-5-5-5-5-5-5-5-5-5-5-5-5-5-5----|
---3-3-3-3-3-3-3-3-3-3-3-3-3-3-3-3----|
--------------------------------------|

--------------------------------------|
--------------------------------------|
--------------------------------------|
---3-3-3-3-3-3-3-3-3-3-3-3-3-3-3-3----|
---1-1-1-1-1-1-1-1-1-1-1-1-1-1-1-1----|
--------------------------------------|


--------------------------------------|
--------------------------------------|
--------------------------------------|
---5-5-5-5-5-5-5-5-5-5-5-5-5-5-5-5----|
---3-3-3-3-3-3-3-3-3-3-3-3-3-3-3-3----|
--------------------------------------|

--------------------------------------|
--------------------------------------|
--------------------------------------|
---3-3-3-3-3-3-3-3-3-3-3-3-3-3-3-3----|
---1-1-1-1-1-1-1-1-1-1-1-1-1-1-1-1----|
--------------------------------------|


--------------------------------------|
--------------------------------------|
--------------------------------------|
--------------------------------------|
---6-6-6-6-6-6-6-6-6-6-6-6-6-6-6-6----|
---4-4-4-4-4-4-4-4-4-4-4-4-4-4-4-4----|

--------------------------------------|
--------------------------------------|
--------------------------------------|
---3-3-3-3-3-3-3-3-3-3-3-3-3-3-3-3----|
---1-1-1-1-1-1-1-1-1-1-1-1-1-1-1-1----|
--------------------------------------|


--------------------------------------|
--------------------------------------|
--------------------------------------|
--------------------------------------|
---6-6-6-6-6-6-6-6-6-6-6-6-6-6-6-6----|
---4-4-4-4-4-4-4-4-4-4-4-4-4-4-4-4----|

--------------------------------------|
--------------------------------------|
--------------------------------------|
---3-3-3-3-3-3-3-3-3-3-3-3-3-3-3-3----|
---1-1-1-1-1-1-1-1-1-1-1-1-1-1-1-1----|
--------------------------------------|


--------------------------------------|
--------------------------------------|
--------------------------------------|
---5-5-5-5-5-5-5-5-5-5-5-5-5-5-5-5----|
---3-3-3-3-3-3-3-3-3-3-3-3-3-3-3-3----|
--------------------------------------|

--------------------------------------|
--------------------------------------|
--------------------------------------|
---3-3-3-3-3-3-3-3-3-3-3-3-3-3-3-3----|
---1-1-1-1-1-1-1-1-1-1-1-1-1-1-1-1----|
--------------------------------------|


--------------------------------------|
--------------------------------------|
--------------------------------------|
---5-5-5-5-5-5-5-5-5-5-5-5-5-5-5-5----|
---3-3-3-3-3-3-3-3-3-3-3-3-3-3-3-3----|
--------------------------------------|

--------------------------------------|
--------------------------------------|
--------------------------------------|
---3-3-3-3-3-3-3-3-3-3-3-3-3-3-3-3----|
---1-1-1-1-1-1-1-1-1-1-1-1-1-1-1-1----|
--------------------------------------|


--------------------------------------|
--------------------------------------|
--------------------------------------|
--------------------------------------|
---6-6-6-6-6-6-6-6-6-6-6-6-6-6-6-6----|
---4-4-4-4-4-4-4-4-4-4-4-4-4-4-4-4----|

--------------------------------------|
--------------------------------------|
--------------------------------------|
---3-3-3-3-3-3-3-3-3-3-3-3-3-3-3-3----|
---1-1-1-1-1-1-1-1-1-1-1-1-1-1-1-1----|
--------------------------------------|


--------------------------------------|
--------------------------------------|
--------------------------------------|
--------------------------------------|
---6-6-6-6-6-6-6-6-6-6-6-6-6-6-6-6----|
---4-4-4-4-4-4-4-4-4-4-4-4-4-4-4-4----|

--------------------------------------|
--------------------------------------|
--------------------------------------|
---3-3-3-3-3-3-3-3-3-3-3-3-3-3-3-3----|
---1-1-1-1-1-1-1-1-1-1-1-1-1-1-1-1----|
--------------------------------------|

--------------------------------------|
--------------------------------------|
--------------------------------------|
--------------------------------------|
---6-6-6-6-6-6-6-6-6-6-6-6-6-6-6-6----|
---4-4-4-4-4-4-4-4-4-4-4-4-4-4-4-4----|

--------------------------------------|
--------------------------------------|
--------------------------------------|
---3-3-3-3-3-3-3-3-3-3-3-3-3-3-3-3----|
---1-1-1-1-1-1-1-1-1-1-1-1-1-1-1-1----|
--------------------------------------|


--------------------------------------|
--------------------------------------|
--------------------------------------|
--------------------------------------|
---6-6-6-6-6-6-6-6-6-6-6-6-6-6-6-6----|
---4-4-4-4-4-4-4-4-4-4-4-4-4-4-4-4----|

----------------------------------------|
----------------------------------------|
----------------------------------------|
---3-3-3-3-3-3-3-3-3-3-3-3-3-3-3-3--5~--|
---1-1-1-1-1-1-1-1-1-1-1-1-1-1-1-1--3~--|
----------------------------------------|


Interlude:


Guitar 1:

----------3-----------------4~----------|
------4-6----6-4----------6-------------|
---5-------------5~-----3---------------|
----------------------------------------|
----------------------------------------|
----------------------------------------|

----------3-----------------4-3h4p3~----|
------4-6----6-4----------6-------------|
---5-------------5~-----3---------------|
----------------------------------------|
----------------------------------------|
----------------------------------------|



Outro:


Guitar 1 (Distortion):

---8-888------------11-11-11-11----|
---------8-9\8---------------------|
-----------------------------------|
-----------------------------------|
-----------------------------------|
-----------------------------------|

---8-888------------11-11-11-11----|
---------8-9\8---------------------|
-----------------------------------|
-----------------------------------|
-----------------------------------|
-----------------------------------|

---8-888------------11-11-11-11----|
---------8-9\8---------------------|
-----------------------------------|
-----------------------------------|
-----------------------------------|
-----------------------------------|

---8-888------------13-13-13-13----|
---------8-9\8---------------------|
-----------------------------------|
-----------------------------------|
-----------------------------------|
-----------------------------------|

---11-11-11-11---------11-11-11-11----|
----------------8-9\8-----------------|
--------------------------------------|
--------------------------------------|
--------------------------------------|
--------------------------------------|

---8-888------------11-11-11-11----|
---------8-9\8---------------------|
-----------------------------------|
-----------------------------------|
-----------------------------------|
-----------------------------------|

---8-888------------13-13-13-13----|
---------8-9\8---------------------|
-----------------------------------|
-----------------------------------|
-----------------------------------|
-----------------------------------|

                              TP
---11-11-11-11----------------13---|
----------------8-9p8h9p8-6--------|
-----------------------------------|
-----------------------------------|
-----------------------------------|
-----------------------------------|


Weird Part:


   TP
---13~-----_13----_13------_13-----|
---------------(8)-(9)-(8)---------|
-----------------------------------|
-----------------------------------|
-----------------------------------|
-----------------------------------|

   TP            TP TP TP TP
---------------------------------|
---8-------------9--8--9--8------|
-----------------12-12-12-12-----|
---------------------------------|
---------------------------------|
---------------------------------|
---------------------------------|

   TP            TP TP TP TP
---------------------------------|
---8-------------9--8--9--8------|
-----------------12-12-12-12-----|
---------------------------------|
---------------------------------|
---------------------------------|
---------------------------------| ...?


Guitar 2 (Distortion):

--------------------------------------|
--------------------------------------|
--------------------------------------|
--------------------------------------|
---6-6-6-6-6-6-6-6-6-6-6-6-6-6-6-6----|
---4-4-4-4-4-4-4-4-4-4-4-4-4-4-4-4----|

--------------------------------------|
--------------------------------------|
--------------------------------------|
---3-3-3-3-3-3-3-3-3-3-3-3-3-3-3-3----|
---1-1-1-1-1-1-1-1-1-1-1-1-1-1-1-1----|
--------------------------------------|


--------------------------------------|
--------------------------------------|
--------------------------------------|
--------------------------------------|
---6-6-6-6-6-6-6-6-6-6-6-6-6-6-6-6----|
---4-4-4-4-4-4-4-4-4-4-4-4-4-4-4-4----|

--------------------------------------|
--------------------------------------|
--------------------------------------|
---3-3-3-3-3-3-3-3-3-3-3-3-3-3-3-3----|
---1-1-1-1-1-1-1-1-1-1-1-1-1-1-1-1----|
--------------------------------------|


Weird Part:


--------------------------------------|
--------------------------------------|
--------------------------------------|
--------------------------------------|
---6-6-6-6-6-6-6-6-6-6-6-6-6-6-6-6----|
---4-4-4-4-4-4-4-4-4-4-4-4-4-4-4-4----|

--------------------------------------|
--------------------------------------|
--------------------------------------|
--------------------------------------|
---6-6-6-6-6-6-6-6-6-6-6-6-6-6-6-6----|
---4-4-4-4-4-4-4-4-4-4-4-4-4-4-4-4----|


--------------------------------------|
--------------------------------------|
--------------------------------------|
--------------------------------------|
---6-6-6-6-6-6-6-6-6-6-6-6-6-6-6-6----|
---4-4-4-4-4-4-4-4-4-4-4-4-4-4-4-4----|

----------------------------------------|
----------------------------------------|
----------------------------------------|
----------------------------------------|
---6-6-6-6-6-6-6-6-6-6-6-6-6-6-6-6--6~--|
---4-4-4-4-4-4-4-4-4-4-4-4-4-4-4-4--4~--|


. = Palm Muted
h = Hammer-On
p = Pull-Off
TP= Tremolo Picking
_ = Let Ring
/ = Slide Up
\ = Slide Down

Almost there ...

Sign in to get your own page with links to favourite songs and more. You are just one click away...

Login with Facebook Login with Google