Log in

One click and you are in

Login with Facebook Login with Google

Why sign up and log in

Guitar Tabs Explorer
Placebo tabs for Burger queen

Guitar tabs

Album: Without You I'm Nothing
Tabbed by John Cotterill
Send all comments to: squire_73@hotmail.com

Guitar tuned down 1/2 step
Intro/verse

|-------------------------------------------------------------|
|-------------------------------------------------------------|
|-------------------------------------------------------------|
|----------------------------------------------2--------------|
|--4-4-5-4---4-4----0---0-0---0-0-----4\2-2-2----2-2---2-2--2-|
|--5-5-5-5---5-5\---2-2-2/5---5-5-0---0---0-0------0-0---0--0-|


|-----------------------|
|-----------------------|
|-----------------------|
|-----------------------|
|-2-2-2----5-5-4-2-0----|
|-0---0----0-0-0-0-0----|

Repeat then play this on top with loads of finger vibro

|------------------------------------------------------|
|-14-14-14--12--12-12\--10-10--10--10--10-9\--5-5/-----|
|------------------------------------------------------|
|------------------------------------------------------|
|------------------------------------------------------|
|------------------------------------------------------|


|-----------------------------------------------------------------|
|-14----14-14-14--12----12-12-12-12---14-14-14-12---12-12-12-12---|
|-----------------------------------------------------------------|
|-----------------------------------------------------------------|
|-----------------------------------------------------------------|
|-----------------------------------------------------------------|

Chorus

|-------------------------------------------------------------------|
|-10-10-10-10----10-10--10-10-10-9-9-10--10-12-10--9-9-9-9-3/5--5-5-|
|-------------------------------------------------------------------|
|-------------------------------------------------------------------|
|-------------------------------------------------------------------|
|-------------------------------------------------------------------|

|---------------------------------------------------------------------|
|-5--5-5-5-5--5-5-5-5--10-10-10-10---10-10--10-10-10-9-9-10--10-10-10-|
|---------------------------------------------------------------------|
|---------------------------------------------------------------------|
|---------------------------------------------------------------------|
|---------------------------------------------------------------------|

|-----------------------------------------|
|-12-12-12-12-12-12-12-12-9-9-9-9-9-9-9-9-|
|-----------------------------------------|
|-----------------------------------------|
|-----------------------------------------|
|-----------------------------------------|
ⓘ Guitar tab for 'Burger Queen' by Placebo, an alternative rock band formed in 1994 from London, England. Placebo is known for their bittersweet rock/pop music.

Almost there ...

Sign in to get your own page with links to favourite songs and more. You are just one click away...

Login with Facebook Login with Google