Log in

One click and you are in

Login with Facebook Login with Google

Why sign up and log in

Guitar Tabs Explorer
Placebo chords for Battle for the sun ukulele

Battle For The Sun Ukulele chords by Placebo

Placebo chords for Battle for the sun ukulele

Guitar chords

0:00-1:16

e|---------------------------------------------------------------------------|
B|---------------------------------------------------------------------------|
G|---------------------------------------------------------1-----------------|
D|-------14-------------15---------3—-3—-3—-3—-0h2h3-3--3--3-----------------|
A|-12-12-12-12-12-12-12-12-12-12\--1--1--1--1--1-----1--1--1-----------------|
D|-0--0--0--0—-0--0--0--0—-0--15\--0--0--0--0--0-----0—-0--------------------|


1:17-1:29

e|---------------------------------------------------------------------------|
B|---------------------------------------------------------------------------|
G|---------------------------------------------------------------------------|
D|-0-----2-----3-----5-----7-------0-----2-----3-----5-----8-----------------|
A|-0-x4--2-x4--3-x4--5-x4--7-x16---0-x4--2-x4--3-x4--5-x4—-8-x16-------------|
D|-0-----2-----3---—-5-----7-------0-----2—----3-----5-----8-----------------|


1:30-2:19

Play the intro/verse again, with occasional flourishes, hit a big old fuzzy harmonic and then:


2:20-2:47

e|---------------------------------------------------------------------------|
B|---------------------------------------------------------------------------|
G|---------------------------------Play this twice, then bend this note—-13^-|
D|--10------8------0------8--------------------------------------------------|
A|--10-x16--8-x16--0-x16--8-x16----------------------------------------------|
D|--10------8------0------8--------------------------------------------------|

ⓘ Guitar chords for 'Battle For The Sun Ukulele' by Placebo, an alternative rock band formed in 1994 from London, England. Placebo is known for their bittersweet rock/pop music.

Almost there ...

Sign in to get your own page with links to favourite songs and more. You are just one click away...

Login with Facebook Login with Google