Log in

One click and you are in

Login with Facebook Login with Google

Why sign up and log in

Guitar Tabs Explorer
Placebo chords for Allergic to thoughts of mother earth ukulele

Allergic To Thoughts Of Mother Earth Ukulele chords by Placebo

Placebo chords for Allergic to thoughts of mother earth ukulele

Guitar chords

----------------------------Intro-------------------------------------------

 guitar 1:

-4-4-4-4-4-4-4-4--6-6-6-6-6-6-6-6------|
-4-4-4-4-4-4-4-4--6-6-6-6-6-6-6-6------|
-5-5-5-5-5-5-5-5--8-8-8-8-8-8-8-8 -6-6-6-6-6-6-6-6--8-8-8-8-8-8-8-8------|
-6-6-6-6-6-6-6-6--6-6-6-6-6-6-6-6------|
-4-4-4-4-4-4-4-4--6-6-6-6-6-6-6-6------|

guitar one strummes its part 4 times alone then:

 guitar 2:

---------------------------8-8-8-|
-------------------6-6-6-6-------|
-5-5-5-5-5-----------------------|
-----------6-6-6-6---------------|
---------------------------------|
---------------------------------|

-------------------------------------Verse----------------------------------

guitar 1:


-4-4-4-4-4-4-4-4--6-6-6-6-6-6-6-6--------------------------------------------|
-4-4-4-4-4-4-4-4--6-6-6-6-6-6-6-6--------------------------------------------|
-5-5-5-5-5-5-5-5--8-8-8-8-8-8-8-8--------------------------------------------|
-6-6-6-6-6-6-6-6--8-8-8-8-8-8-8-8--------------------------------------------|  4x
-6-6-6-6-6-6-6-6--6-6-6-6-6-6-6-6--------------------------------------------|
-4-4-4-4-4-4-4-4--6-6-6-6-6-6-6-6--------------------------------------------|
------------------------------------Chorus-----------------------------------|

guitar 1:


-4-4-4-4-4-4-4-4--6-6-6-6-6-6-6-6-|
-4-4-4-4-4-4-4-4--6-6-6-6-6-6-6-6-|
-5-5-5-5-5-5-5-5--8-8-8-8-8-8-8-8-|
-6-6-6-6-6-6-6-6--8-8-8-8-8-8-8-8-|
-6-6-6-6-6-6-6-6--6-6-6-6-6-6-6-6-|
-4-4-4-4-4-4-4-4--6-6-6-6-6-6-6-6-|

guitar 2:


---------------------------8-8-8---------------------------8-8-8--|
-------------------6-6-6-6-------------------------6-6-6-6--------|
-5-5-5-5-5-----------------------5-5-5-5-5------------------------|
-----------6-6-6-6-------------------------6-6-6-6----------------|
------------------------------------------------------------------|
------------------------------------------------------------------|

guitar 3:

---------------------------8-8-8----------------------------------|
-------------------6-6-6-6----------------------------------------|
-5-5-5-5-5-----------------------5-5-5-5-5------------------------|
-----------6-6-6-6-------------------------6-6-6-6-5-5-5-5-5-5-5--|
------------------------------------------------------------------|
------------------------------------------------------------------|

the hole thing 2x

----------------------------------------------------------------------------


Verse
----------------------------------------------------------------------------

Chorus (with text)
-------------------------------Brigde---------------------------------------

(''don't let me down'')

-4-4-4-4-4-4-4-4--6-6-6-6-6-6-6-6------------------------------------------------------------------------------|
-4-4-4-4-4-4-4-4--6-6-6-6-6-6-6-6------------------------------------------------------------------------------|
-5-5-5-5-5-5-5-5--8-8-8-8-8-8-8-8------------------------------------------------------------------------------|  4x
-6-6-6-6-6-6-6-6--8-8-8-8-8-8-8-8                     --6-6-6-6-6-6-6-6--6-6-6-6-6-6-6-6--|
-4-4-4-4-4-4-4-4--6-6-6-6-6-6-6-6------------------------------------------------------------------------------|

------------------------------(Solo)----------------------------------------

-23-20-20-15-15-10-|
-------------------|
-------------------|
-------------------|   2x
-------------------|
-------------------|

other guitar plays any sh*t

----------------------------------------------------------------------------

Bridge
----------------------------------------------------------------------------

Chorus
----------------------------------------------------------------------------

Solo
----------------------------------------------------------------------------

Ending


13-13-13-13-13-13-13-13-13-13-13-|
13-13-13-13-13-13-13-13-13-13-13-|
---------------------------------|
---------------------------------|
---------------------------------|
---------------------------------|

other guitar: put your hand over the strings and strumm

FIN.
ⓘ Guitar chords for 'Allergic To Thoughts Of Mother Earth Ukulele' by Placebo, an alternative rock band formed in 1994 from London, England. Placebo is known for their bittersweet rock/pop music.

Almost there ...

Sign in to get your own page with links to favourite songs and more. You are just one click away...

Login with Facebook Login with Google