Log in

One click and you are in

Login with Facebook Login with Google

Why sign up and log in

Guitar Tabs Explorer
Pizzicato Five bass tabs for Sweet soul revue

Bass tabs

Tuning: Standard (E A D G)


Intro:

G|---------------------------------------------------------------------------|
D|-------------7----7-7------------------------------------------------------|
A|-7-7----9-10----------10-9-------------------------------------------------|
E|---------------------------------------------------------------------------| x 4
Verse 1:

Applies to all verses

G|---------------------------------------------------------------------------|
D|-------------7----7-7------------------------------------------------------|
A|-7-7----9-10----------10-9-------------------------------------------------|
E|---------------------------------------------------------------------------| x 2

G|---------------------------------------------------------------------------|
D|---------------------------------------------------------------------------|
A|-11--11--11--11--12--12--12--12--11--11--11--11--12--12--12--12------------|
E|---------------------------------------------------------------------------|


Bridge:

G|---------------------------------------------------------------------------|
D|---------------------------------------------------------------------------|
A|-9--9--9--9--11--11--11--11--12--12--12--12--11--11--11--11----------------|
E|---------------------------------------------------------------------------|

G|---------------------------------------------------------------------------|
D|---------------------------------------------------------------------------|
A|-9--9--9--9--11--11--11--11--12--12--12--12--11~---------------------------|
E|---------------------------------------------------------------------------|


Chorus:

G|---------------------------------------------------------------------------|
D|-------------7----7-7------------------------------------------------------|
A|-7-7----9-10----------10-9-------------------------------------------------|
E|---------------------------------------------------------------------------| x 4


************************************


| ~  Vibrato


************************************

Almost there ...

Sign in to get your own page with links to favourite songs and more. You are just one click away...

Login with Facebook Login with Google